Song name
# A B C D E F G H I J K L M N O P Q R S T U V W X Y Z

Marco Antonio Solis - Si No Te Hubieras Ido tab

Help us improve GuitareTab! Take a short survey!
Highlighted       Show chord diagrams
Capo 2

intro
e|----------------------------------------------------------|
B|-----5--6---6-5---5-3------------5---6---6-5---5-3--------|
G|--/5--5---5-----5-----5-------/5---5---5-----5------------|  x2
D|----------------------------------------------------------|
A|----------------------------------------------------------|
E|----------------------------------------------------------|


CHORDS used
E|--0-----1-----3-----0-----0---------------|
B|--1-----1-----3-----1-----0---------------|
G|--2-----2-----4-----0-----1---------------|
D|--2-----3-----5-----2-----0---------------|
A|--0-----3-----5-----3-----2---------------|
E|--0-----1-----3-----0-----0---------------|
    Am    F     G     C     E7(i think)


Am                    F        G       C   E7
TE EXTRAO MS QUE NUNCA Y NO S QU HACER.

Am              F             G      C
DESPIERTO Y TE RECUERDO AL AMANECER.

G                                    C
ME ESPERA OTRO DA POR VIVIR SIN T.

E7        Am                      F      G
EL ESPEJO NO MIENTE, ME VEO TAN DIFERENTE.

                C  E7
ME HACES FALTA T.

Am                  F         G      C  E7
LA GENTE PASA Y PASA SIEMPRE TAN IGUAL.

Am                F     G      C  E7
EL RITMO DE LA VIDA ME PARECE MAL.

G                                  C  E7  Am
ERA TAN DIFERENTE CUANDO ESTABAS T,

F                G                   C
S QUE ERA DIFERENTE CUANDO ESTABAS T.

G                                      C
NO HAY NADA MS DIFCIL QUE VIVIR SIN T.   NOOO!!

G                                   C
SUFRIENDO EN LA ESPERA DE VERTE LLEGAR.

G                                  C
EL FRO DE MI CUERPO PREGUNT POR T,

E7              Am
Y NO S DONDE ESTS.

F                  G              C    E7
SI NO TE HUBIERAS IDO SERA TAN FELIZ.


e|-----------------------------------------------|
B|-----5--6---6-5-------5---6---6-5---5-3--------|
G|--/5--5---5--------/5---5---5-----5-----5------|
D|-----------------------------------------------|
A|-----------------------------------------------|
E|-----------------------------------------------|

Am                  F         G      C  E7
LA GENTE PASA Y PASA SIEMPRE TAN IGUAL.

Am                F     G      C
EL RITMO DE LA VIDA ME PARECE MAL.

G                                  C  E7  Am
ERA TAN DIFERENTE CUANDO ESTABAS T,

F                G                   C
S QUE ERA DIFERENTE CUANDO ESTABAS T.

G                                      C
NO HAY NADA MS DIFCIL QUE VIVIR SIN T.   NOOO!!

G                                   C
SUFRIENDO EN LA ESPERA DE VERTE LLEGAR.

G                                  C
EL FRO DE MI CUERPO PREGUNT POR T,

E7              Am
Y NO S DONDE ESTS.

F                  G              C
SI NO TE HUBIERAS IDO SERA TAN FELIZ.


G                                      C
NO HAY NADA MS DIFCIL QUE VIVIR SIN T.   NOOO!!

G                                   C
SUFRIENDO EN LA ESPERA DE VERTE LLEGAR.

E7              Am
Y NO S DONDE ESTS.

F                  G              C    E7
SI NO TE HUBIERAS IDO SERA TAN FELIZ.


   F                  G              C
SI NO TE HUBIERAS IDO SERA TAN FELIZ..


END on C
Related for Si No Te Hubieras Ido tab