Song name
# A B C D E F G H I J K L M N O P Q R S T U V W X Y Z

Marcy Playground - Sex & Candy tab

Date: Fri, 16 Jan 1998 13:51:56 +0000
From: Matt Koenig 
Subject: TAB: 'Sex and Candy' by 'Marcy Playground'


Song: Sex and Candy (tab version)
Artist: Macy Playground
Album: Marcy Playground
Tabbed by: Matt Koenig (mmkoenig@uiuc.edu)

h : Hammer On
p : pull off
d : downward strum
u : upward strum

Rhy. Fig 1  (play 3 times)

       d   u d u d  u d      d  d  d  u  d  d  u  d
|------------------------|---------------------------|
|------------------------|---------------------------|
|------------------------|---------------------------|
|----- 9---9-9-9-9--9-9--|--12-12-12-12-11-11-11-11--|
|------9---9-9-9-9--9-9--|--12-12-12-12-11-11-11-11--|
|--7---7---7-7-7-7--7-7--|--10-10-10-10-9--9--9--9---|

Rhy. Fig 1a  (play once)

       d   u d u d  u d      d  d  d  u  d  d  d  d  d  d  d  d
|------------------------|---------------------------------------|
|------------------------|---------------------------------------|
|------------------------|---------------------------------------|
|----- 9---9-9-9-9--9-9--|--12-12-12-12-11-11-11-11-11-11-11-11--|
|------9---9-9-9-9--9-9--|--12-12-12-12-11-11-11-11-11-11-11-11--|
|--7---7---7-7-7-7--7-7--|--10-10-10-10-9--9--9--9--9--9--9--9---|

chorus
                  d  u d d d d d  d d
|--------------------------------------|
|--------------------------------------|
|--------------------------------------|
|--7h9p7----------9--9-5-5-5-5-7--7-7--|
|--------9-7h9----9--9-5-5-5-5-7--7-7--|
|--------------7--7--7-3-3-3-3-5--5-5--|

                  d  u d d d d d  d d
|--------------------------------------|
|--------------------------------------|
|--------------------------------------|
|--7h9p7----------9--9-5-5-5-5-7--7-7--|
|--------9-7h9----9--9-5-5-5-5-7--7-7--|
|--------------7--7--7-3-3-3-3-5--5-5--|

                  d  u d d d d d  d d u d d u d
|------------------------------------------------|
|------------------------------------------------|
|------------------------------------------------|
|--7h9p7----------9--9-5-5-5-5-7--7-7-7-7-7-7-7--|
|--------9-7h9----9--9-5-5-5-5-7--7-7-7-7-7-7-7--|
|--------------7--7--7-3-3-3-3-5--5-5-5-5-5-5-5--|

Rhy Fig 2  (play 2 times)

   d  d u  d d d  d d u  d d d
|-------------------------------|
|-------------------------------|
|--7--7-7-----------------------|
|--7--7-7--7-7-7--9-9-9--5-5-5--|
|--5--5-5--7-7-7--9-9-9--5-5-5--|
|----------5-5-5--7-7-7--3-3-3--|

Rhy Fig 2a  (play once)

   d d d d d d d d
|-------------------|
|-------------------|
|-------------------|
|--4-4-4-4-4-4-4-4--|
|--4-4-4-4-4-4-4-4--|
|--2-2-2-2-2-2-2-2--|

Rhy Fig 1 (3 times)

Rhy Fig 1a (1 time)

Chorus

Rhy Fig 2 (3 times)

Rhy Fig 2a (1 time)

Chorus

Rhy Fig 2 (3 times)

End with:

|-----|
|-----|
|--7--|
|--7--|
|--5--|
|-----|

Matt Koenig  (mmkoenig@uiuc.edu)
Tap to rate this tab
# A B C D E F G H I J K L M N O P Q R S T U V W X Y Z