Song name
# A B C D E F G H I J K L M N O P Q R S T U V W X Y Z

Marcy Playground - Sherry Fraser tab

Help us improve GuitareTab! Take a short survey!
-----------------------------------------------------------------------------
	      Sherry Fraser - Marcy Playground
-----------------------------------------------------------------------------
Tabbed by:Deathpidgeon
Email:Superdeathpidgeons@hotmail.com

I dont have the cd right now for reference
so the tabs are good, though the strumming may be a bit off
but I have faith in you to figure it out

e|----3--------3-33-----0-----0-----3--------3-33----2----2------------------|
B|----3--------3-33-----1-----1-----3--------3-33----3----3------------------|
G|----0--------0-00-----0-----0-----0--------0-00----2-0202------------------|
D|----------------------2--0202--------------------0-------------------------|
A|-------020---------3-----------------020-----------------------------------|
E|-3--------3--------------------3--------3----------------------------------|

e|---0------0-2-----3-3---22--0--------3-3---22--0---------------------------|
B|---1------1-3-----3-3---33--1--0-----3-3---33--1---------------------------|
G|---0------0-2-----0-0---22--0--0-----0-0---22--0---------------------------|
D|---2--2-----------------0---2--------------0---2---------------------------|
A|-3----2/3-------------------3------------------3---------------------------|
E|---------------3------------------3----------------------------------------|

e|----3-3---22--0---------3-3---22--0-----------------------------------------|
B|----3-3---33--1--0------3-3---33--1--0--------------------------------------|
G|----0-0---22--0--0------0-0---22--0--0--------------------------------------|
D|----------0---2---------------0---2-----------------------------------------|
A|--------------3-------------------3-----------------------------------------|
E|-3-------------------3------------------------------------------------------|
   Now repeat every thing we just did and then. . .
e|---0------0-----0------0----3------3-----2----2-------------------------|
B|---1------1-----1------1----3------3-----3----3-------------------------|
G|---0------0-----0------0----0------0-----2-0202-------------------------|
D|---2-020--2-----2-020--2---------------0--------------------------------|
A|-3------3-----3------3--------020---------------------------------------|
E|--------------------------3------3--------------------------------------|

e|---0------0-2-----3-3---22--0--------3-3---22--0---------------------------|
B|---1------1-3-----3-3---33--1--0-----3-3---33--1---------------------------|
G|---0------0-2-----0-0---22--0--0-----0-0---22--0---------------------------|
D|---2--2-----------------0---2--------------0---2---------------------------|
A|-3----2/3-------------------3------------------3---------------------------|
E|---------------3------------------3----------------------------------------|

e|----3-3---22--0---------3-3---22--0-----------------------------------------|
B|----3-3---33--1--0------3-3---33--1--0--------------------------------------|
G|----0-0---22--0--0------0-0---22--0--0--------------------------------------|
D|----------0---2---------------0---2-----------------------------------------|
A|--------------3-------------------3-----------------------------------------|
E|-3-------------------3------------------------------------------------------|
  Then play this three or four times and end on G
e|-----3-------3-----2----2-----0-------0-2----------------------------------|
B|-----3-------3-----3----3-----1-------1-3-0--------------------------------|
G|-----0-------0-----2-0202-----0-------0-2-0--------------------------------|
D|-----------------0------------2--2-----------------------------------------|
A|-------020------------------3----2/3---------------------------------------|
E|--3-------3----------------------------------------------------------------|

Thats pretty much it, hope you dig it.
Related for Sherry Fraser tab