Song name
# A B C D E F G H I J K L M N O P Q R S T U V W X Y Z

Marcy Playground - Irene tab

Alright Marcy Playground fans! I dont know if you have had the opporitunity to hear the 
"Irene" on MP's new album
"Leaving Wonderland... In A Fit Of Rage" but I personally love it and have attempted to 
out the tab for you all!
This is my first tab ever so please forgive me if I messed up.. But it sounds pretty 
and right to me.

So without further adu please enjoy Marcy Playgrounds - "Irene"
P.S. If you would like to hear the "Irene" song it is free to listen at
Marcy Playgrounds myspace music page at http://www.myspace.com/officialmarcy/ in their 
Album.

::NOTE:: I have also uploaded the chords and lyrics version in my contributions in my profile.

Intro:
   E
e-----0--2_4--4--4---2_4--4--4---2_4--4--4--2-0-------2_4--4--4---2_4--4--4-|
b---0----------0-----------0-----------0--------1_2-0-------0-----------0---|
g---------------------------------------------------------------------------|
d---------------------------------------------------------------------------|
a---------------------------------------------------------------------------|
e--0-----0-----0-----0-----0-----0-----0--------0-----0-----0-----0-----0---|
                     A7                    A        A7
e--2_4--4--4-5-4-2-0--------0----------0---------0--------0-----------------|
b--------0--------------2----------2---------2--------2---------------------|
g------------------------0-----------0--------2---------0-------------------|
d---------------------------2----------2---------2--------2-----------------|
a--------------------0-----------0---------0--------0-----------------------|
e--0-----0---0---0----------------------------------------------------------|
   E
e--2_4--4--4---2_4--4--4---2_4--4--4--2-0--------|
b--------0-----------0-----------0--------1_2-0--|
g------------------------------------------------|
d------------------------------------------------|
a------------------------------------------------|
e--0-----0-----0-----0-----0-----0--------0------|

First and Second Verse (Repeat once):
   E
e--2_4--4--4---2_4--4--4---2_4--4--4--2-0---0---2_4--4--4---2_4--4--4-------|
b--------0-----------0-----------0--------2-----------0-----------0---------|
g---------------------------------------------------------------------------|
d---------------------------------------------------------------------------|
a---------------------------------------------------------------------------|
e--0-----0-----0-----0-----0-----0--------0-----0-----0-----0-----0---------|
                     A7                    A        A7
e--2_4--4--4-5-4-2-0--------0----------0---------0--------0-----------------|
b--------0--------------2----------2---------2--------2---------------------|
g------------------------0-----------0--------2---------0-------------------|
d---------------------------2----------2---------2--------2-----------------|
a--------------------0-----------0---------0--------0-----------------------|
e--0-----0---0---0----------------------------------------------------------|
   E
e--2_4--4--4---2_4--4--4---2_4--4--4--2-0----------|
b--------0-----------0-----------0--------1_2-0----|
g--------------------------------------------------|
d--------------------------------------------------|
a--------------------------------------------------|
e--0-----0-----0-----0-----0-----0--------0--------|

Chorus:
   B7
e---------2------------2----------2--------------2-|
b-----0----------0------------0------------0-------|
g------2------------2----------2--------------2----|
d---------1------------1----------1--------------1-|
a--2-----------2------------2------------2---------|
e--------------------------------------------------|

Guitar Solo:
   E
e--2_4--4--4---2_4--4--4---2_4--4--4--2-0----------|
b--------0-----------0-----------0--------1_2-0----|
g--------------------------------------------------|
d--------------------------------------------------|
a--------------------------------------------------|
e--0-----0-----0-----0-----0-----0--------0--------|
   A7                   A        A7
e---------0----------0---------0--------0----------|
b-----2----------2---------2--------2--------------|
g------0-----------0--------2---------0------------|
d---------2----------2---------2--------2----------|
a--0-----------0---------0--------0----------------|
e--------------------------------------------------|
   B7
e---------2------------2----------2--------------2-|
b-----0----------0------------0------------0-------|
g------2------------2----------2--------------2----|
d---------1------------1----------1--------------1-|
a--2-----------2------------2------------2---------|
e--------------------------------------------------|
   E
e--2_4--4--4---2_4--4--4---2_4--4--4--2-0----------|
b--------0-----------0-----------0--------1_2-0----|
g--------------------------------------------------|
d--------------------------------------------------|
a--------------------------------------------------|
e--0-----0-----0-----0-----0-----0--------0--------|

Third Verse Repeat:
   E
e--2_4--4--4---2_4--4--4---2_4--4--4--2-0----------|
b--------0-----------0-----------0--------1_2-0----|
g--------------------------------------------------|
d--------------------------------------------------|
a--------------------------------------------------|
e--0-----0-----0-----0-----0-----0--------0--------|


(Also if it helps, I put what chords your fingers should be positioned in above the tab 
it changes... Except the E ones =))
Tap to rate this tab
 
# A B C D E F G H I J K L M N O P Q R S T U V W X Y Z