Guitaretab - guitar tabs
Song name
# A B C D E F G H I J K L M N O P Q R S T U V W X Y Z

Marduk - Baptism By Fire tab

Band: Marduk

Album: Panzer Division Marduk

Song: Baptism By Fire

Copyright (c) Osmose  1999

Version 1.0 - 07/10/2007

Transcribed By: inrwtl, FRMC, Fredduk

Email: inrwtl@alice.it


.  - palm mute           /  - slide up to
\  - slide down to       ~  - vibrato
h  - hammer on           b  - Bend
p  - pull off            Suffixes for bend
t  - tap                 f  - full bend    h - half bend
ph - pinched harmonic    q  - quarter bend t - tap bend
*  - see comment         ^  - Hold bend    r release bend
x  - Stuccatto           ~  - vibrato bend
,  - slight palm mute    () - ghost note, sustained note
"  - tremolo note        <> - Trill

Tuning: D# G# C# F# A# D# (semitone flat)


Riff 1

|-------------------------------------------------------------------|
|-------------------------------------------------------------------|
|-------------------------------------------------------------------|
|-------------------------------------------------------------------|
|-4-4-4-4-5-5-5-5-2-2-2-2-5-5-5-5-4-4-4-4---------------------------|
|-2-2-2-2-3-3-3-3-0-0-0-0-3-3-3-3-2-2-2-2---------------------------|


Riff 2

|-------------------------------------------------------------------|
|-------------------------------------------------------------------|
|-------------------------------------------------------------------|
|-4-4-4-4-5-5-5-5-2-2-2-2-5-5-5-5-4-4-4-4---------------------------|
|-2-2-2-2-3-3-3-3-0-0-0-0-3-3-3-3-2-2-2-2---------------------------|
|-------------------------------------------------------------------|


Riff 3

|-------------------------------------------------------------------|
|-------------------------------------------------------------------|
|-------------------------------------------------------------------|
|-10-10-9-9-7-7-9-9-9-9---10-10-9-9-7-7-9-9-10-10-9-9-7-7-----------|
|-8--8--7-7-5-5-7-7-7-7---8--8--7-7-5-5-7-7-8--8--7-7-5-5-----------|
|-------------------------------------------------------------------|


Riff 4
[ Tab from: http://www.guitaretab.com/m/marduk/40939.html ]
|-------------------------------------------------------------------|
|-------------------------------------------------------------------|
|-------------------------------------------------------------------|
|-2-2-2-2-3-3-3-3-6-6-5-5-3-3---------------------------------------|
|-0-0-0-0-1-1-1-1-4-4-3-3-1-1---------------------------------------|
|-------------------------------------------------------------------|


Riff 5

|-------------------------------------------------------------------|
|-------------------------------------------------------------------|
|-----------8-8-8-8-------------8-8-8-8-5-5-5-5---------------------|
|-2-2-2-3-2-6-6-6-6---2-2-2-3-2-6-6-6-6-3-3-3-3---------------------|
|-0-0-0-1-0-----------0-0-0-1-0-------------------------------------|
|-------------------------------------------------------------------|


Riff 6

|-------------------|-----------------------------------------------|
|-------------------|-----------------------------------------------|
|-----------------9-|-----------------9-10-9h10h9-7-10--------------|
|----------7h9h10---|----------7h9h10-------------------------------|
|-2-7h9h10----------|-2-7h9h10--------------------------------------|
|-0-----------------|-0---------------------------------------------|


Riff 7

|-------------------------------------------------------------------|
|-------------------------------------------------------------------|
|-------------------------------------------------------------------|
|-9-9-9-9--7-7--9-9-9-9--7-7--9-9-9-9--7-7--10-10--7-7--10-10--9-9--|
|-7-7-7-7--5-5--7-7-7-7--5-5--7-7-7-7--5-5--8--8---5-5--8--8---7-7--|
|-7-7-7-7-5-5-7-7-7-7--5-5--7-7-7-7--5-5--8--8---5-5--8--8---7-7--|


Riff 8

|-------------------------------------------------------------------|
|-------------------------------------------------------------------|
|-9-9-9-9-10-10-10-10-13-13-12-12-10-10-----------------------------|
|-7-7-7-7-8--8--8--8--11-11-10-10-8--8------------------------------|
|-------------------------------------------------------------------|
|-------------------------------------------------------------------|


END
Related for Baptism By Fire tab