Song name
# A B C D E F G H I J K L M N O P Q R S T U V W X Y Z

Mariachi - El Mariachi tab

I just wrote down the tabs from a tutorial on YouTube, so its not me in the video down 
below showing you how to play it or either my YouTube account.

e ---------------------------------------0-0--------------------------------|
B ----------------------------0-0--1-0-0-0-0-0---------------0----1-1-0-----|
G ----------------------------0-0--2-0-0-0-0-0-0-2----2--2-2-0-2--2-----0-2-|
D --------------------------2------------------3-4--4-4--4-4---4------------|
A -2h3-0h2---0------------2------------------------5------------------------|
E ---------3---2h3-0----0---------------------------------------------------|

e --------------------------------------------------------------------------|
B --------------------------------------------------------------------------|
G ---3-0-----0--------------------------------------------------------------|
D -4-----1-4----------------------------------------------------------------|
A --------------------------------------------------------------------------|
E --------------------------------------------------------------------------|


Link to actual video on YouTube:
http://www.youtube.com/watch?v=T_F4qsv6_9s
Tap to rate this tab
# A B C D E F G H I J K L M N O P Q R S T U V W X Y Z