Song name
# A B C D E F G H I J K L M N O P Q R S T U V W X Y Z

Marie Fisker - Seven Days chords

Highlighted       Show chord diagrams
coudn't find the lyrics to this breathless tune by the danish singer. the chords 
are very easy, though



Verse and intro and instrumental parts

[F#m]                                           [E]
e|----------------------------------------------------------------------------|
B|----2---------2-------------0----------0------------------------------------|
G|---2-2------2--2-----------1-1-------1-1------------------------------------|
D|--4---4----4----4---------2---2-----2---2-----------------------------------|
A|-4--------4-------------2----------2----------------------------------------|
E|----------------------------------------------------------------------------|


Chorus and outro

[B]                 [A]              [E]
e|-----------------------------------------------------------------------------|
B|-----4--------2--------0---------0-------------------------------------------|
G|----4-4-----2--2-----1--1------1-1-------------------------------------------|
D|---4---4---2----2---2----2----2---2------------------------------------------|
A|--2-------0--------2--------2------------------------------------------------|
E|-----------------------------------------------------------------------------|
Tap to rate this tab
# A B C D E F G H I J K L M N O P Q R S T U V W X Y Z