Guitaretab - guitar tabs
Song name
# A B C D E F G H I J K L M N O P Q R S T U V W X Y Z

Marie Picasso - This Moment tab

Greeley Estates
This Moment
Far From Lies
2006
Submitted by: paramore_fans@yahoo.com

Key: B

Tuning: Standard EADGBe

Chords used:
G#m -   466444
E -     022100
B -     x24442
F# -    244322
F#/Bb - x143xx
C#m -   x46654
Ebm -   x68876


Intro: G#m--E--G#m--E-F#

Guitar 2:
e|-------2--0---|----0---------|-------2--0-----------------|---------|---------|
B|------------4-|-4-----4--2-2-|------------4--0--2--4--5-4-|---------|---------|
G|-3--4---------|--------------|-3--4-----------------------|---------|---------|
D|--------------|--------------|----------------------------|-2--2--2-|-4--4--4-|
A|--------------|--------------|----------------------------|-2--2--2-|-4--4--4-|
E|--------------|--------------|----------------------------|-0--0--0-|-2--2--2-|
        x2            x2                                         Distortion


Verse 1:
G#m                   B
  so here so here you are now
                   G#m
in the wake of your dreams
                B
you're standing so close to all of this
G#m
  why do you keep doubting yourself
B
  you've done this before
G#m                                   B
  you said you'd die for the chance to be here


Chorus 1:
B            F#/Bb       E
this is your time to let go
                   F#/Bb
you only have this moment
B              F#/Bb
  you've waited for so long
   E             F#/Bb
to be right here

[ Tab from: http://www.guitaretab.com/m/marie-picasso/162362.html ]
Verse 2:
G#m                  B
  now you look in the mirror
                 G#m
and you tell yourself that
             B
this is what you want
G#m                            B
  you'd be a fool if you didn't act on this now
G#m
  just tell yourself you can do this
B
  cause it's all you want


(Repeat Chorus 1)


Chorus 2:
B              F#/Bb
  did you ever think
             E
did you ever dream
              F#/Bb
that you'd be here
B            C#m             E
  now is the time for you to show
                 F#/Bb
them what you're made of


Interlude: G#m--G#m


Bridge:
G#m            B                 E       Ebm C#m
they say (they say) that there's nothing to  you
G#m               B              E       F#           G#m(hold)
since when (since when) do their words define who you are
     B(hold)
it's your time
G#m(hold)                     E(hold)
  forget what they are saying about you
G#m                         B
  don't waste another moment this is your only chance
G#m
  you've worked so hard to get here
E
  don't ever forget that


Interlude: G#m
e|----------2-----|-6-|
B|----------------|-7-|
G|------4-------4-|-4-|
D|----4---4---4---|-6-|
A|----------------|-6-|
E|-4--------------|-4-|
         x3


(Repeat Chorus 1 and 2)


Outro:
G#m      B                E       Ebm C#m
    they say that there's nothing to  you
G#m       B             E     F#             G#m
    since when do their words define who you are
Advertisement will be closed in 10 seconds