Song name
# A B C D E F G H I J K L M N O P Q R S T U V W X Y Z

Marika Hackman - Retina Television tab

CAPO 1FR.

(1)
E------0-----0-----0--|
B------0-----0-----0--|
G------0-----0-----0--|
D------2-----0-----2--|
A---------------------|
E--3-3---2-2---0-0----|

Pupils as deep as wells...

(2)
E--0--0--0------0-------|
B--1--1--1------0-------|
G--3--3--3------0-------|
D--2--2--2------2-------|
A--3--3-----------------|
E--------0--3-3---------|

Fall in the morning, I fall in the morning...

(3)
E------1--0------0-------|
B------1--1------0-------|
G------2--3------0-------|
D------3--2------2-------|
A---------3--------------|
E-1-1-------3-3----------|

(1)
Pupils as deep as wells
Letting the world pour in
Save it for when you're bored
Retina television.
Pupils as black as crows
Soaking up all the light
Burning when it gets dark
Torches when it is dark.

(2)
Fall in the morning,
I fall in the morning

(1)
To the spider that's hanging down.
Picked them off one by one
You did not want to help.
You did not mean to help.

(2)
By the look on your face, the look on your face
The look on your face, the look on your face
And I've fallen from grace, I've fallen for grace,

(3)
Hold me in your arms and tell me I'm ok, ok

(1)
Pupils as deep as wells
Letting the world pour in
Save it for when you're bored.
Retina television.
Tap to rate this tab
 
# A B C D E F G H I J K L M N O P Q R S T U V W X Y Z