Song name
# A B C D E F G H I J K L M N O P Q R S T U V W X Y Z

Marilyn Manson - Blue Monday tab

i couldnt find this anywhere so i decided to figure it out myself. im pretty sure its all right.

tuning: drop C


intro

guitar one:
D|-------------------------------------------------------------------
A|-------------------------------------------------------------------
F|-------------------------------------------------------------------
C|-------------------------------------------------------------------
G|--10-10-10-10-5-5-5-5-7-7-7-7-7-7-7-7------------------------------
C|------------------------------------------------------------------- x7

guitar two: (comes in on 0:19 once guitar 1 has played that four times) 

D|-7------7----------------------------------------------------------
A|---7-8----7-5------------------------------------------------------
F|-------------------------------------------------------------------
C|-------------------------------------------------------------------
G|-------------------------------------------------------------------
C|------------------------------------------------------------------- x3


both guitars heavily distorted

D|-------------------------------------------------------------------
A|-------------------------------------------------------------------
F|-------------------------------------------------------------------
C|-5-5-5-5-0-0-0-0-2-2-2-2-2-2-2-2-7-7-7-7-0-0-0-0-2-2-2-2-2-2-2-2---
G|-5-5-5-5-0-0-0-0-2-2-2-2-2-2-2-2-7-7-7-7-0-0-0-0-2-2-2-2-2-2-2-2---
C|-5-5-5-5-0-0-0-0-2-2-2-2-2-2-2-2-7-7-7-7-0-0-0-0-2-2-2-2-2-2-2-2--- x2



verse
comes in on 1:10

guitar one:
D|-------------------------------------------------------------------
A|-------------------------------------------------------------------
F|-------------------------------------------------------------------
C|-------------------------------------------------------------------
G|--10-10-10-10-5-5-5-5-7-7-7-7-7-7-7-7------------------------------
C|------------------------------------------------------------------- x4


1:25
both guitars heavily distorted
D|-------------------------------------------------------------------
A|-------------------------------------------------------------------
F|-------------------------------------------------------------------
C|-5-5-5-5-0-0-0-0-2-2-2-2-2-2-2-2-7-7-7-7-0-0-0-0-2-2-2-2-2-2-2-2---
G|-5-5-5-5-0-0-0-0-2-2-2-2-2-2-2-2-7-7-7-7-0-0-0-0-2-2-2-2-2-2-2-2---
C|-5-5-5-5-0-0-0-0-2-2-2-2-2-2-2-2-7-7-7-7-0-0-0-0-2-2-2-2-2-2-2-2--- X2

1:47
guitar one:
D|-------------------------------------------------------------------
A|-------------------------------------------------------------------
F|-------------------------------------------------------------------
C|-------------------------------------------------------------------
G|--10-10-10-10-5-5-5-5-7-7-7-7-7-7-7-7------------------------------
C|------------------------------------------------------------------- x6

2:09
guitar one:
D|-------------------------------------------------------------------
A|-------------------------------------------------------------------
F|-------------------------------------------------------------------
C|-------------------------------------------------------------------
G|-7-7-7-7-7-7-7-7-5-7-10-10-10-10-10-10-10-10-12-7------------------
C|------------------------------------------------------------------- x2

2:35
guitar one:
D|-------------------------------------------------------------------
A|-------------------------------------------------------------------
F|-------------------------------------------------------------------
C|-------------------------------------------------------------------
G|--10-10-10-10-5-5-5-5-7-7-7-7-7-7-7-7------------------------------
C|------------------------------------------------------------------- x8

3:04
guitar one:
D|-------------------------------------------------------------------
A|-------------------------------------------------------------------
F|-------------------------------------------------------------------
C|-----------------9--5--------9--0----------------------------------
G|--7--5--2--5--7--------5--7--------7-------------------------------
C|------------------------------------------------------------------- x1

guitar one:
D|-------------------------------------------------------------------
A|-------------------------------------------------------------------
F|-------------------------------------------------------------------
C|-------------------------------------------------------------------
G|--10-10-10-10-5-5-5-5-7-7-7-7-7-7-7-7------------------------------
C|------------------------------------------------------------------- x4

3:34
both guitars heavily distorted
D|-------------------------------------------------------------------
A|-------------------------------------------------------------------
F|-------------------------------------------------------------------
C|-5-5-5-5-0-0-0-0-2-2-2-2-2-2-2-2-7-7-7-7-0-0-0-0-2-2-2-2-2-2-2-2---
G|-5-5-5-5-0-0-0-0-2-2-2-2-2-2-2-2-7-7-7-7-0-0-0-0-2-2-2-2-2-2-2-2---
C|-5-5-5-5-0-0-0-0-2-2-2-2-2-2-2-2-7-7-7-7-0-0-0-0-2-2-2-2-2-2-2-2--- X6



im pretty sure thats it enjoy!
Tap to rate this tab
# A B C D E F G H I J K L M N O P Q R S T U V W X Y Z