Song name
# A B C D E F G H I J K L M N O P Q R S T U V W X Y Z

Marilyn Manson - If I Was Your Vampire tab

Song: If I Was Your Vampire
Artist: Marilyn Manson
Album: Eat Me, Drink Me

Tabbed by: Gary the Hann
Email: Ckyfan1@hotmail

Tuning: Standard

Just listen to the song to find out how many times the parts have to be played. There 
a few variations in the ‘Bridge’ strumming but, again, just listen to the song. Good song, 
musicians, good band.

Intro/Verse
e|----------------------------------------------------|
B|----------------------------------------------------|
G|----------------------------------------------------|
D|----------------------------------------------------|
A|----2---3~----2---3~----2---3---2---0---5---3---2~--|
E|--0---0-----0---0-----0---0---0---0---0---0---0-----|


Chorus
e|--------------------------------------------------------------------------|
B|--------------------------------------------------------------------------|
G|----4---5~--------------4---5~--------------4---5---4---2---7---5---4~----|
D|----x---x---------------x---x---------------x---x---x---x---x---x---x-----|
A|----2---3~--------------2---3~--------------2---3---2---0---5---3---2~----|
E|--0---0---0-0-0-0-0-0-0---0---0-0-0-0-0-0-0---0---0---0---0---0--------0--|


Bridge
e|--------------------------------------------------------------------------|
B|--------------------------------------------------------------------------|
G|--7-7-----7-----7-----7-----7-----7----5-----5-----5-----5-----5-----5----|
D|--7-7-7---7-7---7-7---7-7---7-7---7----5-5---5-5---5-5---5-5---5-5---5----|
A|--5-----5-----5-----5-----5-----5---5--3---3-----3-----3-----3-----3---3--|
E|--------------------------------------------------------------------------|

e|--------------------------------------------------------------------------|
B|--------------------------------------------------------------------------|
G|--3-3-----3-----3-----3-----3-----3----7-----7-----7-----7-----7-----7----|
D|--3-3-3---3-3---3-3---3-3---3-3---3----7-7---7-7---7-7---7-7---7-7---7----|
A|--1-----1-----1-----1-----1-----1---1--5---5-----5-----5-----5-----5---5--|
E|--------------------------------------------------------------------------|

e|--------------------------------------------------------------------------|
B|--------------------------------------------------------------------------|
G|--5-5-----5-----5-----5-----5-----5----3-----3-----3-----3-----3-----3----|
D|--5-5-5---5-5---5-5---5-5---5-5---5----3-3---3-3---3-3---3-3---3-3---3----|
A|--3-----3-----3-----3-----3-----3---3--1---1-----1-----1-----1-----1---1--|
E|--------------------------------------------------------------------------|

e|------------------------------------|
B|------------------------------------|
G|--2-2-----2-----2-----2-----2-------|
D|--2-2-2---2-2---2-2---2-2---2-2-----|
A|--0-----0-----0-----0-----0-----0~--|
E|------------------------------------|


Outro
e|---------------------------------------------------------------------------|
B|---------------------------------------------------------------------------|
G|--12-12-12-12-12-12-12-12-12-12-12-12-11-11-11-11-9-9-9-9-8-8-8-8-9-9-9-9--|
D|---------------------------------------------------------------------------|
A|--10-10-10-10-10-10-10-10-10-10-10-10-9--9--9--9--7-7-7-7-6-6-6-6-7-7-7-7--|
E|---------------------------------------------------------------------------|

e|-------------------------------------------------------------------------------|
B|-------------------------------------------------------------------------------|
G|--12-12-12-12-11-11-11-11-11-11-11-11-11-11-11-11-11-11-11-11-5-5-5-5-5-5-5-5--|
D|-------------------------------------------------------------------------------|
A|--10-10-10-10-9--9--9--9--9--9--9--9--9--9--9--9--9--9--9--9--3-3-3-3-3-3-3-3--|
E|-------------------------------------------------------------------------------|

e|-----------------------------------------------------------------------------------|
B|-----------------------------------------------------------------------------------|
G|--4-4-4-4-4-4-4-4-12-12-12-12-12-12-12-12-12-12-12-12-11-11-11-11-9-9-9-9-8-8-8-8--|
D|-----------------------------------------------------------------------------------|
A|--2-2-2-2-2-2-2-2-10-10-10-10-10-10-10-10-10-10-10-10-9--9--9--9--7-7-7-7-6-6-6-6--|
E|-----------------------------------------------------------------------------------|

e|-----------------------------------------------------------------------|
B|-----------------------------------------------------------------------|
G|--9-9-9-9-12-12-12-12-11-11-11-11-11-11-11-11-11-11-11-11-11-11-11-11--|
D|-----------------------------------------------------------------------|
A|--7-7-7-7-10-10-10-10-9--9--9--9--9--9--9--9--9--9--9--9--9--9--9--9---|
E|-----------------------------------------------------------------------|

e|---------------------------------------------------|
B|---------------------------------------------------|
G|--17-17-17-17-17-17-17-17-16-16-16-16-16-16-16-16--|
D|---------------------------------------------------|
A|--15-15-15-15-15-15-15-15-14-14-14-14-14-14-14-14--|
E|---------------------------------------------------|


End on
e|------|
B|------|
G|--9~--|
D|------|
A|--7~--|
E|------|
Tap to rate this tab
# A B C D E F G H I J K L M N O P Q R S T U V W X Y Z