Song name
# A B C D E F G H I J K L M N O P Q R S T U V W X Y Z

Mariodickstroy - Broke tab

Tab:
--------------3--------3-----------2----------2----------2--------|
----3h5----------5---------5----------3----------3----------------|
------------------------------------------------------------------|
------------------------------------------------------------------|
------------------------------------------------------------------|
------------------------------------------------------------------|

-3----------3--------3----------2------2------------|
------1--------1---------1---------1------3---3-----|
----------------------------------------------------|
----------------------------------------------------|
----------------------------------------------------|
----------------------------------------------------|

Chords: Em - D - C - D C - D - Em - G
Tap to rate this tab
 
# A B C D E F G H I J K L M N O P Q R S T U V W X Y Z