Song name
# A B C D E F G H I J K L M N O P Q R S T U V W X Y Z

Marius Muller Westernhagen - Freiheit tab

Band:Landser
Song: Freiheit
Album: Rock Gegen Oben

Intro
Rhythm Guitar:
e------------------------------------------------------------------------|
B------------------------------------------------------------------------|
G------------------------------------------------------------------------|
D--4-4----------------7-7----------------2-2----------------4-4----------|
A--4-4----------------7-7----------------2-2----------------4-4----------|
E--2-2----------------5-5----------------0-0----------------2-2----------| X 2

When the above power chords are repeated twice, the lead guitar comes in and plays
this little riff:
e-----------------------------------------------------------------------------|
B---------------------------14-14----15-14--14-14/--12------------------------|
G--11-11----13-14-13-13-14-------------------------------14--13--11-----------|
D-------------------------------------------------------------------------11--|
A-----------------------------------------------------------------------------|
E-----------------------------------------------------------------------------| X2

Whilst this is being played, the power chords stay the same, but the rythm of the rythm
guitar is changed:

e------------------------------------------------------------------------|
B------------------------------------------------------------------------|
G------------------------------------------------------------------------|
D--4-4-4-4-4-4-4-4-7-7-7-7-7-7-7-7-2-2-2-2-2-2-2-2-4-4-4-4-4-4-4-4-------|
A--4-4-4-4-4-4-4-4-7-7-7-7-7-7-7-7-2-2-2-2-2-2-2-2-4-4-4-4-4-4-4-4-------|
E--2-2-2-2-2-2-2-2-5-5-5-5-5-5-5-5-0-0-0-0-0-0-0-0-2-2-2-2-2-2-2-2-------| X2

Verse:

e---------------------------------------------------------------------------|
B---------------------------------------------------------------------------|
G---------------------------------------------------------------------------|
D--4-4-4-4-4-4-4-4-7-7-7-7-7-7-7-7-2-2-2-2-2-2-2-2-4-4-4-4-4-4-4-4-l--------|
A--4-4-4-4-4-4-4-4-7-7-7-7-7-7-7-7-2-2-2-2-2-2-2-2-4-4-4-4-4-4-4-4-l--------|
E--2-2-2-2-2-2-2-2-5-5-5-5-5-5-5-5-0-0-0-0-0-0-0-0-2-2-2-2-2-2-2-2-l--------| X4

Chorus:
e---------------------------------------------------------------------------|
B---------------------------------------------------------------------------|
G---------------------------------------------------------------------------|
D--4--4-4--4----2--2-2--2----7-7-7--7-----4--4-4-4--------------------------|
A--4--4-4--4----2--2-2--2----7-7-7--7-----4--4-4--4-------------------------|
E--2--2-2--2----0--0-0--0----5--5-5--5----2--2-2--2-------------------------|

e----------------------------------------------------------------------------|
B----------------------------------------------------------------------------|
G----------------------------------------------------------------------------|
D--4--4-4--4----2--2-2--2----7-hold------------------------------------------|
A--4--4-4--4----2--2-2--2----7-hold------------------------------------------|
E--2--2-2--2----0--0-0--0----5-hold------------------------------------------|

Solo:

e-----------------------------------------------------------------------------|
B---------------------------14-14----15-14--14-14/--12------------------------|
G--11-11----13-14-13-13-14-------------------------------14--13--11-----------|
D-------------------------------------------------------------------------11--|
A-----------------------------------------------------------------------------|
E-----------------------------------------------------------------------------| X4
Tap to rate this tab
 
# A B C D E F G H I J K L M N O P Q R S T U V W X Y Z