Song name
# A B C D E F G H I J K L M N O P Q R S T U V W X Y Z

Marjorie Fair - Waves tab

Kaddisfly
Set Sail the Prairie
Waves
Drop Db

Mess around with this at the beginning

19-17-14-----------------------------------------|
-------------------------------------------------|
-------------------------------------------------|
-------------------------------------------------|
-------------------------------------------------|


Play 6 times
--------19-14----------17-12-------------------|
12--15----------12--15-------14----------------|
-----------------------------------------------|
-----------------------------------------------|
-----------------------------------------------|


-----------------17------------------17--------|
15h17------15-15----17------15h17-15----17/19--|
-----------------------------------------------|
-----------------------------------------------|
-----------------------------------------------|
-----------------------------------------------|


------17-------------------17--------------|
15-15----17-------15h17-15----17/19-17-15--|
-------------------------------------------|
-------------------------------------------|
-------------------------------------------|
-------------------------------------------|


Play 3 times
15-12-10-12--15-12-17-15-----------------------------19-------------------------|
-----------------------------------------15----19--------15-17------------------|
-----------------------------------14-16----16----16----------------------------|
--------------------------------------------------------------------------------|
--------------------------------------------------------------------------------|
--------------------------------------------------------------------------------|

then this once:
15-12-10-12--15-12-17-15-----------------------------19-------------------|
-----------------------------------------15----19--------15-17------------|
-----------------------------------14-16----16----16----------------------|
--------------------------------------------------------------------------|
--------------------------------------------------------------------------|
--------------------------------------------------------------------------|

-----------------------------------------------------19--------19--------19--------------|
----------------------15------15-15---------------------15-17-----15-17-----15-17-17-17--|
------19-16-----14h16----16---------14-14h16-14h16---------------------------------------|
14-17------------------------------------------------------------------------------------|
-----------------------------------------------------------------------------------------|
-----------------------------------------------------------------------------------------|


-----------------------------------------------------------------------------------------|
15tremelobend17--------------------------------------------------------------------------|
-----------------------------------------------------------------------------------------|
-----------------------------------------------------------------------------------------|
-----------------------------------------------------------------------------------------|
-----------------------------------------------------------------------------------------|
Tap to rate this tab
# A B C D E F G H I J K L M N O P Q R S T U V W X Y Z