Guitaretab - guitar tabs
Song name
# A B C D E F G H I J K L M N O P Q R S T U V W X Y Z

Mark Knopfler - Just Instinct tab

Play A two times then play B two times. Repeat the thing but make it faster.
After repeating, roll back to A.....
[ Tab from: http://www.guitaretab.com/m/mark-knopfler/104063.html ]
A:
-------2-0-----------2-5-4-0-2-----7-5-4-0--5-4-----------------------------|
-0-2-3-----2-3---3-5-------------7--------------7-5---3-2-0-3--2-0---2-0----|
-------------------------------------------------------------------3--------|
----------------------------------------------------------------------------|
----------------------------------------------------------------------------|
----------------------------------------------------------------------------|


B:
--------5------------------------------------7------------------------------|
-/7-5-7----7-5-7-8--5---5-7-5---5-7--7-5-7-8---8-7-5--5---5--7--5-3-2-------|
----------------------7-------7-------------------------7--------------4----|
----------------------------------------------------------------------------|
----------------------------------------------------------------------------|
----------------------------------------------------------------------------|

try it its easy.......
Related for Just Instinct tab
Advertisement will be closed in 10 seconds