Song name
# A B C D E F G H I J K L M N O P Q R S T U V W X Y Z

Mark Knopfler - The Long Road tab

Song: "The Long Road"
Artist: Mark Knopfler
Album: "Cal" Soundtrack

----------------------------------------------------------------------|
----------------------------------------------------------------------|
-------7-----7-----------7-----7------4-5-----2-4-----4-5-----2-4-----|
-7h9--7--9--7--9---7/9--7--9--7--9---2----2--0----0--2----2--0----0---|
----------------------------------------------------------------------|
----------------------------------------------------------------------|

----------------------------------------------------------------------|
----------------------------------------------------------------------|
-------7-----7-----------7-----7------4-5-----2-4-----4-5-----2-4-----|
-7h9--7--9--7--9---7/9--7--9--7--9---2----2--0----0--2----2--0----0---|
----------------------------------------------------------------------|
----------------------------------------------------------------------|

----------------------------------------------------------------7-----|
--------------------------------------------/8---------------10-------|
----7--5--4---------4-------7--5--4---------/7--9--7--9-9---7-----7---|
---5---7--5--7--5---5------5---7--5--7--5---/9-------------7----------|
-/5----------5--5---5----/5-------5--5--5-----------------------------|
----------------------------------------------------------------------|

------------------------------------------------|
-/8---------------------------------------------|
-/7--9--7--9-9----4-4-------5-5-----------------|
-/9---------------5-5--7-7--5-5--7-7------------|
-----------------------5-5-------5-5------------|
------------------------------------------------|

----------------------------------------------------------------------|
----------------------------------------------------------------------|
-------7-----7-----------7-----7------4-5-----2-4-----4-5-----2-4-----|
-7h9--7--9--7--9---7/9--7--9--7--9---2----2--0----0--2----2--0----0---|
----------------------------------------------------------------------|
----------------------------------------------------------------------|

And now for the finale (absolutely brilliant):

--------------------------------------------------|-----------------|
-----15-12---------------------15-12--------------|-----15-12-------|
---14-----12------14-12------14-----12------14-12-|---14-----12-----|
-12---------12--12-----12--12---------12--12------|-12---------12---|
--------------------------------------------------|-----------------|
--------------------------------------------------|-----------------|

---------------------------------------------15-12-----------------|
----------------15-12----------------------15-----13------15-13----|
---14-12------14-----12------14-12\11----12---------12--12-----12--|
-12-----12--12---------12--12--------14---------------14-----------|
-------------------------------------------------------------------|
-------------------------------------------------------------------|

-----15-12------------------|--------------------------------------|
---15-----13------15-13-12--|--------------------------------------|
-12---------12--12----------|-repeat the pattern within the--------|
----------------------------|-bars until the guitar fades out------|
----------------------------|--------------------------------------|
----------------------------|--------------------------------------|


I hope it's of some use.

-KEW
Tap to rate this tab
 
# A B C D E F G H I J K L M N O P Q R S T U V W X Y Z