Song name
# A B C D E F G H I J K L M N O P Q R S T U V W X Y Z

Mark Knopfler - Piper To The End tab

Piper To the End Solo:


Hello Everyone here is my version of the solo of Mark Knopflers song Piper to the end. 
a really nice solo, and i couldnt find a tab online so i gave it go.
Its my First Tab so go easy on me guys:)
Tips and suggestions are always welcome.

The ^ in the middle of the song is REALLY fast and really Light so be carefull with 
Listen to the song a couple of times to get the timing right

 Good luck i hope you like it

e---------------------8-7-5----------------------------------------|
B---------------------------8-5----5-8-8/10------------------------|
G---5h7/9-7-5-----5-------------7------------7/9-12-12-9-12-9-7-5--|
D-------------9-7--------------------------------------------------|
A------------------------------------------------------------------|
E------------------------------------------------------------------|


e------------5---------------------------------5-7-5-----------------|
B-------5--8---8-6/5----------5-8-8---5/8----8^--------8--5---5-8/10-|
G---5-7--------------7-----7-----------------------------7-----------|
D--5-----------------------------------------------------------------|
A--------------------------------------------------------------------|
E--------------------------------------------------------------------|

e-------------------------------------------|
B-----------------------------5-------------|
G-----7/9-12-12-9-12-9-7-5--5--7-5--5-5-----|
D-------------------------7-------7---------|
A-------------------------------------------|
E-------------------------------------------|
Tap to rate this tab
# A B C D E F G H I J K L M N O P Q R S T U V W X Y Z