Mark Knopfler - So Far From The Clyde tab

-------------------------------------------------------------------------
	    Mark Knopfler - So Far From The Clyde - Intro
-------------------------------------------------------------------------

p = pull off
h = hammer on
/ = upslide
\ = downslide


E------------------------------------|
B----11---9--------------------------|
G------------10---8--10--8--10-------|
D----------------------11------11p8--|
A------------------------------------|
E------------------------------------|

E----------------------------------------|
B-----------------------------------9-11-|
G-----------------8--8h10p8\6/8-10-------|
D---6h8---8/10/11------------------------|
A----------------------------------------|
E----------------------------------------|

E--------------------------------------------|
B--9-----------------------------------------|
G-----10---6-/8-10p8\6/8-10-----------6------|
D-----------------------------11p8-----6-/8--|
A--------------------------------------------|
E--------------------------------------------|
Tap to rate this tab
 
# A B C D E F G H I J K L M N O P Q R S T U V W X Y Z