Song name
# A B C D E F G H I J K L M N O P Q R S T U V W X Y Z

Mark Knopfler - Irish Boy tab

IRISH BOY
00:05              x3                       00:40
--|-----------------|-------------------------|---7----7----7-10--------------7-|
--|-----------------|-------------------------|-----10---10-----------------8---|
--|---7-------------|--------7----------------|-7----------------9-9-7-9--9-----|
--|-9---10-9-10-9-7-|----7-9---10-9-10-9-7--9-|---------------------------------|
--|-----------------|-10----------------------|---------------------------------|
--|-----------------|-------------------------|---------------------------------|
        00:51                                       01:04
----------|---7----7----7-10---------------7----------|---------7--------7-----|
8-10-8-10-|-----10---10------------------8---8-10-8-8-|-------8---8-10-8-------|
----------|-7----------------9-9--7-9--9--------------|-7-9-9--------------7-9-|
----------|-------------------------------------------|------------------------|
----------|-------------------------------------------|------------------------|
----------|-------------------------------------------|------------------------|
             01:15                                   01:29
----7----------|---------7--------7---------7----------|-7----7----7-10---------|
--8---8-10-8-8-|-------8---8-10-8---------8---8-10-8-8-|---10---10--------------|
9--------------|-7-9-9--------------7-9-9--------------|----------------9-9-7-9-|
---------------|---------------------------------------|------------------------|
---------------|---------------------------------------|------------------------|
---------------|---------------------------------------|------------------------|
              01:41                                      01:54
----7-----------|---7----7----7-10--------------7----------|---------7--------7-|
--8---8-10-8-10-|-----10---10-----------------8---8-10-8-8-|-------8---8-10-8---|
9---------------|-7----------------9-9-7-9--9--------------|-7-9-9--------------|
----------------|------------------------------------------|--------------------|
----------------|------------------------------------------|--------------------|
----------------|------------------------------------------|--------------------|
             02:05                                    02:17
--------7------|---------7--------7----------7----------|--7----7----7-10------|
------8---8-10-|-------8---8-10-8----------8---8-10-8-8-|----10---10-----------|
7-9-9----------|-7-9-9---------------7-9-9--------------|-7---------------9-9--|
---------------|----------------------------------------|----------------------|
---------------|----------------------------------------|----------------------|
---------------|----------------------------------------|----------------------|

---------7---------------------------------------------------------------------|
-------8---8-10-8-10-----------------------------------------------------------|
7-9--9-------------------------------------------------------------------------|
-------------------------------------------------------------------------------|
-------------------------------------------------------------------------------|
-------------------------------------------------------------------------------|
Tap to rate this tab
 
# A B C D E F G H I J K L M N O P Q R S T U V W X Y Z