Mark Morton - D2 tab

Legend~~
\-slide down
/-slide up
b-bend
r-release
*-harmonic
~-vibrato

play grouped 000 as triplets

Tune to Drop D

E|----------------------------------------------------------------------------------|
B|----------------------------------------------------------------------------------|
G|-7~~------8\7---10------5-------7-------------------------------------------------|
D|-7~~------8\7---10------5-------7---------------0---------------------------------|
A|-5~~------6\5---8-------3-------5--5b-rp0-3p0---0---------------------------------|
D|------0-0-----0----0-0-----0-0-----5b-rp0-3p0-0-0-0-0-000-0-0-000-000-000---------|

E|----------------------------------------------------------------------|
B|----------------------------------------------------------------------|
G|--7-----------------8-----7\5/7---7~~---------------------------------|
D|--7-----5---3---5---8-----7\5/7---7~~------3--------------------------|
A|--5-----5---3---5---6-----5\3/5---5~~------3--------------------------|
D|----0-0---0---0---0---0-0-------0--------0-3---0-3*~~~~---------------|



http://www.youtube.com/watch?v=b-bR6y8oDRU
Tap to rate this tab
 
# A B C D E F G H I J K L M N O P Q R S T U V W X Y Z