Guitaretab - guitar tabs
Song name
# A B C D E F G H I J K L M N O P Q R S T U V W X Y Z

Mark Tremonti - The Things Ive Seen tab

Mark Tremonti - "The Things I've Seen"
From "All I Was" Solo record
tuning: D standard DGCFAD
tabbed by jjhand

See Mark play this one at the Orlando show (link below). No solo but some 

great singing and rhythm work. Please Rate or comment.

http://www.youtube.com/watch?v=B58ZjuY5hZc&feature=related


Clean Verse Riff - the First chord has a slow upstroke

   Dadd2           F                C
d|-0----0---0---x----------------|--0-----0----0--0--0--0----0--0--0--0-|
A|-0----0---0---x--12---12-12-12-|--0-----0----0--0--0--0----0--0--0--0-|
F|-11---11--11--x--12---12-12-12-|-11----11---11-11-11-11---11-11-11-11\|
C|-9----9---9--/12-12---12-12-12-|-12----12---12-12-12-12---12-12-12-12\|
G|-7----7---7--/10-10---10-10-10-|-12----12---12-12-12-12---12-12-12-12\|
D|-------------------------------|-10----10---10-10-10-10---10-10-10-10\|

   Bb7                                    Dm
|--0----0---0--0--0--0----0---------|-----0-0-0---0-0-0-0----0-0-0-|
|--0----0---0--0--0--0----0---------|-----0-0-0---0-0-0-0----0-0-0-|
|--9----9---9--9--9--9----9---------|-----0-0-0---0-0-0-0----0-0-0-|
|-10---10--10-10-10-10---10---------|-----2-2-2---2-2-2-2----x-x-x-|
|-10---10--10-10-10-10---10---------|-----2-2-2---2-2-2-2---/7-7-7-|
|--8----8---8--8--8--8----8--0-2b3r-|-0---0-0-0---0-0-0-0----------|


"It takes you and it tears it all out
it tears it all out, but you never know
 It takes your life, turns you into someone
and you know it won't be long. Someone you'd never know"



Guitar 2 (Beginning of verse lyrics, and repeated later)

|-12NH-------------------|
|-12NH-------------------|
|------------------------|
|------------------------|
|------------------------|
|------------------------|




Chorus - lyrics:

"Don't claim that you know me
When you know very well
That I have seen through it all
And don't claim that you know why
When you know everything
When you've seen things"


1) Bb2            F              Dm         E      
|--3----3---3-3-3-3----3-3-----|-0----0---0-2-2---2-2-0-0-|
|--3----3---3-3-3-3----3-3-----|-0----0---0-2-2---2-2-0-0-|
|--5----5---5-5-5-4----4-4-0-0-|-0----0---0-3-3---3-3-x-x-|
|--5----5---5-5-5-5----5-5-0-0-|-2----2---2-4-4---4-4-x-x-|
|--3----3---3-3-3-5----5-5-0-0-|-2----2---2-4-4---4-4-x-x-|
|--3----3---3-3-3-3----3-3-x-x-|-0----0---0-2-2---2-2-0-2-|

2) G6          C              Dmadd2     
|--0----0----0-0-0--0-0-----|-0----0---0----------------|
|--0----0----0-0-0--0-0-----|-0----0---0--8-8---8-8-0-0-|
|--4----4----4-7-7--7-7-----|-11---11--11-9-9---9-9-0-0-|
|--5----5----5-7-7--7-7-----|-9----9---9--9-9---9-9-x-x-|
|--5----5----5-5-5--5-5-----|-7----7---7--7-7---7-7-x-x-|
|--3----3----3----------0-0-|-0----0---0--0-0---0-0-----|

repeat line 1, then play

                           Distortion on     
|--0----0------0---------|----------------------|
|--0----0------0---------|----------------------|
|--4----4------7---------|----------------------|
|--5----5------7---------|-x\\\\\---------------|
|--5----5----0-5---------|-x\\\\\--pick scrape--|
|--3----3----------------|-x\\\\\---------------|
                                  "for what they were"





Verse Riff 2 (Distorted Guitar):

d|-0----0---0--------------------|--0-----0----0--0--0----0------|
A|-0----0---0--/12-12---12-12-12-|--0-----0----0--0--0----0------|
F|-11---11--11-/12-12---12-12-12-|-11----11---11-11-11---11--x-x-|
C|-9----9---9--/12-12---12-12-12-|-12----12---12-12-12---12--x-x-|
G|-7----7---7--/10-10---10-10-10-|-12----12---12-12-12---12--x-x-|
D|-------------------------------|-10----10---10-10-10---10--0-0-|

|--0----0---0--0--0--0----0---------|-----0-0-0------octaves----------|
|--0----0---0--0--0--0----0---------|-----0-0-0-----------------------|
|--9----9---9--9--9--9----9---------|-----0-0-0-----12-12-12-11-11-11-|
|-10---10--10-10-10-10---10---------|-----2-2-2------x--x--x--x--x--x-|
|-10---10--10-10-10-10---10---------|-----2-2-2-----10-10-10--9--9--9-|
|--8----8---8--8--8--8----8--0-3-2--|-0---0-0-0---0-------------------|
[ Tab from: http://www.guitaretab.com/m/mark-tremonti/325418.html ]
"Inside you feel it taking over
It's taking over
When you feel it most, it draws you in and tears it away
It tears it away
Then it leaves you lost"


Play Verse Riff 2 again 2x, first time without octaves part


Play Chorus Again



Clean Bridge (played 4x):
|-------------------------0---|--------------------0---------|
|---------------------------0-|----------------------0-------|
|--------------------2--------|--------2----1----------1-----|
|----0---2--0----------0------|----0-----------0---------0---|
|----------------0------------|------2-----------2---------2-|
|-3----3------1----1----------|-0---------0------------------|




Heavy Bridge - play 2x (hold chord in 4th bar on repeat)
 Guitar 1
|------------------------|------------------------|
|------------------------|------------------------|
|------------------------|-4----4---4-4--4--4--4--|
|-5----5---5-5--5--5--5--|-4----4---4-4--4--4--4--|
|-5----5---5-5--5--5--5--|-2----2---2-2--2--2--2--|
|-3----3---3-3--3--3--3--|------------------------|
|
|Guitar 2 w/ effects, some tremelo picking
|
|-15-----------------19--|--------------------19--|
|------------------------|-19---------------------|
|------------------------|------------------------|
|------------------------|------------------------|
|------------------------|------------------------|
|------------------------|------------------------|

1.           "Remember the days when our fears had"
2. "And now how they age us they've taken 


  Gutiar 1
|----------------------|----------3-3-------------|
|----------------------|-3----3---3-3--3--3-------|
|-11--11--11-----------|-5----5---5-5--5--5-------|
|-9---9---9--9---9---9-|-5----5---5-5--5--5---x-x-|
|-7---7---7--6---6---6-|-3----3---3-3--3--3---x-x-|
|-0---0---0--0---0---0-|-3----3---3-3--3--3---x-x-|
|
| Gtr 2
|-19---------------------|-15---------------------|
|-------17----------17---|------------------------|
|----16----16----16----16|------------------------|
|------------------------|------------------------|
|------------------------|------------------------|
|------------------------|------------------------|
1. "long     since      died"
2. "all      our        lives....           lives"





Play Verse Riff 2 again




Guitar 1 (end of Riff, play 2x)
|---------------------------------|
|---------------------------------|
|---------------------------------|
|---------------------------------|
|---------------------------------|
|-0-0-0-0-0-0-0-0-0-0-0-0-0-0-0-0-|
  all PM

Guitar 2 (end of Riff, 2nd bar)
|-------------------------|
|-------------10----13-12-|
|-9---11--12--------------|
|-------------7-----10--9-|
|-7---9---10--------------|
|-------------------------|




Play Chorus Again, Guitar 2 plays this (with octave/effects):

|-12---15-14-------|-12---15-14-------|
|---------------15-|---------------15-|
|------------------|------------------|
|------------------|------------------|
|------------------|------------------|
|------------------|------------------|

|-12---15-14-------|-12~~-------------|
|------------------|------------------|
|------------------|------------------|
|------------------|------------------|
|------------------|------------------|
|------------------|------------------|







Play Clean Bridge Again to end song



Guitar 2 Ending part (continue similarly to end)

|-12------|---------|-5NH-----|---------|
|---------|-12------|---------|-5NH-----|
|---------|---------|---------|---------|
|---------|---------|---------|---------|
|---------|---------|---------|---------|
|---------|---------|---------|---------|



Guitar 1 Ending (4:14)

|----------------------------|
|----------------------------|
|----------------------------|
|----0---2--0--0-------------|
|--------------0-------------|
|-3----3-------1-------------|



KEY
************************************

| /   slide up
| \   slide down
| h   hammer-on
| p   pull-off
| ~   vibrato
| NH  natural harmonic
| x   Mute note
| b   Bend
| pb  Pre-bend
| r   Bend release

************************************
Related for The Things Ive Seen tab
The Things Ive Seen chords by Mark Tremonti