Song name
# A B C D E F G H I J K L M N O P Q R S T U V W X Y Z

Maroon 5 - Stutter tab

#----------------------------------PLEASE NOTE--------------------------------#
#This file is the author's own work and represents their interpretation of the#
#song. You may only use this file for private study, scholarship, or research.#
#-----------------------------------------------------------------------------#

-------------------------------------------------------------------------------
			                              Stutter - Maroon 5
-------------------------------------------------------------------------------
Tabbed by: scorpion king
This is my very first tab so i don't expect it to be perfect, please leave a
comment to tell me what you think of it. There are two different guitar
melodies but I'm sorry I can't make out the other one as it is only playing
faintly in the background.

Tuning: EADGBe

INTRO:
e|---------------------|
B|---------------------|
G|---------------------|
D|---------------------| x10 
A|----4/7--4/7-7--4----|
E|---------------------|


VERSE:
e|--------------------------------|
B|--------------------------------|
G|------6----9---4----------------|
D|------6----9---4---7----7/9-----| x6
A|------4----7---2---7----7/9-----|
E|-------------------5----5/7-----|


PRECHORUS:
e|---------------------------------------------------------------|
B|---------------------------------------------------------------|
G|---6--6-6--4--4-4--2--2-2--4--4-4--6--6-6--4--4-4--3--3-3--2---|
D|---6--6-6--4--4-4--2--2-2--4--4-4--6--6-6--4--4-4--3--3-3--2---|
A|---4--4-4--2--2-2--0--0-0--2--2-2--4--4-4--2--2-2--1--1-1--0---|
E|---------------------------------------------------------------|


CHORUS:

I am pretty sure that this is how the louder of the guitars goes. I'm not
sure about the first power chord, though.
e|-------------------------------------------------------|
B|-------------------------------------------------------|
G|----------------9--9--9--9-----------------------------|
D|----7--7--7--7--9--9--9--9--11-11-11-11--9--9--9--9----| x2
A|----7--7--7--7--7--7--7--7--11-11-11-11--9--9--9--9----|
E|----5--5--5--5--------------9--9--9--9---7--7--7--7----|

e|---------------------------------------------------------------------------|
B|---------------------------------------------------------------------------|
G|-------------9-9-9-9----8--8--8--8---7--7--------------6--6--4--4--2--2----|
D|----7-7-7-7--9-9-9-9----8--8--8--8---7--7--------------6--6--4--4--2--2----|
A|----7-7-7-7--7-7-7-7----6--6--6--6---5--5--------------4--4--2--2--0--0----|
E|----5-5-5-5----------------------------------------------------------------|

VERSE 2:
e|--------------------------------|
B|--------------------------------|
G|------6----9---4----------------|
D|------6----9---4---7----7/9-----| x6
A|------4----7---2---7----7/9-----|
E|-------------------5----5/7-----|

PRECHORUS:
e|---------------------------------------------------------------|
B|---------------------------------------------------------------|
G|---6--6-6--4--4-4--2--2-2--4--4-4--6--6-6--4--4-4--3--3-3--2---|
D|---6--6-6--4--4-4--2--2-2--4--4-4--6--6-6--4--4-4--3--3-3--2---|
A|---4--4-4--2--2-2--0--0-0--2--2-2--4--4-4--2--2-2--1--1-1--0---|
E|---------------------------------------------------------------|

CHORUS:
e|-------------------------------------------------------|
B|-------------------------------------------------------|
G|----------------9--9--9--9-----------------------------|
D|----7--7--7--7--9--9--9--9--11-11-11-11--9--9--9--9----| x2
A|----7--7--7--7--7--7--7--7--11-11-11-11--9--9--9--9----|
E|----5--5--5--5--------------9--9--9--9---7--7--7--7----|

e|---------------------------------------------------------------------------|
B|---------------------------------------------------------------------------|
G|-------------9-9-9-9----8--8--8--8---7--7-----------6--6--4--4--3--3--2--2-|
D|----7-7-7-7--9-9-9-9----8--8--8--8---7--7-----------6--6--4--4--3--3--2--2-|
A|----7-7-7-7--7-7-7-7----6--6--6--6---5--5-----------4--4--2--2--1--1--0--0-|
E|----5-5-5-5----------------------------------------------------------------|
INTERLUDE: (or whatever it is called!)
e|-----------------------------------------------------|
B|-----------------------------------------------------|
G|-----------------------------------------------------|
D|---6--6--6--6--6--6--6--6--11-11-11-11-11-11-11-11---|
A|---6--6--6--6--6--6--6--6--11-11-11-11-11-11-11-11---|
E|---4--4--4--4--4--4--4--4--9--9--9--9--9--9--9--9----|

e|-----------------------------------------------------|
B|-----------------------------------------------------|
G|-----------------------------------------------------|
D|---6--6--6--6--6--6--6--6--7--7--7--7----------------|
A|---6--6--6--6--6--6--6--6--7--7--7--7----------------|
E|---4--4--4--4--4--4--4--4--5--5--5--5--9-11-12-14----|

CHORUS:
e|-------------------------------------------------------|
B|-------------------------------------------------------|
G|----------------9--9--9--9-----------------------------|
D|----7--7--7--7--9--9--9--9--11-11-11-11--9--9--9--9----| x3
A|----7--7--7--7--7--7--7--7--11-11-11-11--9--9--9--9----|
E|----5--5--5--5--------------9--9--9--9---7--7--7--7----|

e|---------------------------------------------------------------------------|
B|---------------------------------------------------------------------------|
G|-------------9-9-9-9----8--8--8--8---7--7-----------6--6--4--4--3--3--2--2-|
D|----7-7-7-7--9-9-9-9----8--8--8--8---7--7-----------6--6--4--4--3--3--2--2-|
A|----7-7-7-7--7-7-7-7----6--6--6--6---5--5-----------4--4--2--2--1--1--0--0-|
E|----5-5-5-5----------------------------------------------------------------|

e|---------------------|
B|---------------------|
G|----6--6--4--4--3--3-|
D|----6--6--4--4--3--3-|
A|----4--4--2--2--1--1-|
E|---------------------|

That's it, as it is my first tab I will probably have made mistakes when
typing it up, please if you see a mistake or think that something
needs to be corrected just leave a comment. Anyway it sounds OK
way when you play it with the song in the background.
Thankyou.

************************************

| /   slide up
| \   slide down
| h   hammer-on
| p   pull-off
| ~   vibrato
| +   harmonic
| x   Mute note
| b   Bend
| pb  Pre-bend
| br  Bend release
| pbr Pre-bend release
| brb Bend release bend

************************************
Tap to rate this tab
 
# A B C D E F G H I J K L M N O P Q R S T U V W X Y Z