Guitaretab - guitar tabs
Song name
# A B C D E F G H I J K L M N O P Q R S T U V W X Y Z
Home / M / Maroon 5 / Kiwi tab

Maroon 5 - Kiwi tab

Album: It Won't Be Soon Before Long 
tabbed by: qweyet Gi

Guitar solos are at the bottom. I provided the lyrics and the
guitar doesn't come in until Verse 2.
Leave your criticisms.

     E5  D5  B5  A5  Em   Cmaj  Gmaj  Bmaj
e|----x---x---x---x---7----3-----3-----7-----|
B|----x---x---x---x---8----5-----3-----7-----|
G|----x---x---x---x---9----5-----4-----8-----|
D|----9---7---x---x---9----5-----5-----9-----|
A|----7---5---9---7---7----3-----5-----9-----|
E|----x---x---7---5---x----x-----3-----7-----|

  Verse Riff                   Pre-Chorus Riff
     E5   D5  E5   D5 E5         E5    B5    D5    A5
e|---------------------------|---------------------------|
B|---------------------------|---------------------------|
G|---------------------------|---------------------------|
D|---9--9-7-9-9-9--7--9--9---|---9-9---------7-7---------|
A|---7--7-5-7-7-7--5--7--7---|---7-7---9-9---5-5---7-7---|
E|---------------------------|---------7-7---------5-5---|

  Chorus Riff
     Em              Em              Em              Em
e|---7---------------7---------------7---------------7---------------------|
B|---8---------------8---------------8---------------8-----10-10-10-9------|
G|---9---7-9--7-9-9--9---7-9--7-9-9--9---7-9--7-9-9--9---------------------|
D|---9---------------9---------------9---------------9---9-----------------|
A|---7---------------7---------------7---------------7---------------------|
E|-------------------------------------------------------------------------|

  Bridge Riff - strum            Outro Riff - (play four times)
                                              (before guitar solo)
     Em    Cmaj    Gmaj   Bmaj     Em
e|---7-----3-------3------7----|---7---------------------|
B|---8-----5-------3------7----|---8----10-10-10-9-------|
G|---9-----5-------4------8----|---9---------------------|
D|---9-----5-------5------9----|---9--9------------------|
A|---7-----3-------5------9----|---7---------------------|
E|-----------------3------7----|-------------------------|

Verse 1:
Youíre such a flirt, I know you hurt
And so do I, I empathize
I see you out, you never cared
A conversation that we never shared

Verse 2:
But itís so strange, itís something new
Amazing feelings that I have for you
I close my eyes when Iím alone
Wonder what itíd be like to make you moan

Pre-Chorus:
I wanna give you something better
Than anything youíve ever had
A stronger and a faster lover
The world, it disappears so fast

Chorus:
Sweet kiwi
Your juices dripping down my chin
So please, let me
Donít stop me before it begins

Verse 3:
So give it up, and donít pretend
And spread your arms and legs across the bed
And when you shake, you wonít regret
The things I whisper in your ear
(What?) I said:

[Pre-Chorus]

[Chorus]
[ Tab from: http://www.guitaretab.com/m/maroon-5/91264.html ]
Bridge:
I canít wait to take you home
Fingers through your hair
Kisses on your thigh
Scratch me with your nails
Save me from myself
Show me how to care
Get everything out
Dripping everywhere
Lipstick smeared all over your face
How much longer must we wait?
Donít think that I can wait

[Chorus]

Chorus:
Sweet kiwi (wanna give you something better than this)
Your juices dripping down my chin (hey, yeh)
So please, let me (wanna give you something better than this)
Donít stop it before it begins

Outro:
Donít stop me before it begins
Donít stop me before it begins
Donít stop me before it begins
Donít stop me before it begins 

[Guitar Solo]
  guitar 1                                         -fades for guitar 2
e|-------------------------------------------------------------------------|
B|-------------------------------------------------------------------------|
G|-------------------------------------------------------------------------|
D|--------------12----12-14~~12-14~~12-------12\11-------------------------|
A|--------12-14----14------------------14-14-------------------------------|
E|---7/12------------------------------------------------------------------|

  guitar 2 - D drop                                     -fades for guitar 1
e|-------------------------------------------------------------------------|
B|-------------------------------------------------------------------------|
G|-------------------------------------------------------------------------|
D|------------------------------------0-2----------------------------------|
A|-----------2-2-0-----------0-0--2-2-------------2-2-0--------------------|
D|---0-0-2-0-------0-0--2-2---------------2-2-4-2-------2------------------|

  guitar 1      
e|-------------------------------------------------------------------------|
B|-------------------------------------------------------------------------|
G|------14-12----12--------------------------------------------------------|
D|--12--------14----14-12----------------------------------12-14-----------|
A|------------------------14-12----------------------10-12~------12-14-----|
E|------------------------------15-12-10-15-10-12-10-----------------------|

  guitar 1                      -the last note may be stretched using
                                 the whammy, or virbrato
e|-------------------------------------------------------------------------|
B|-------------------------------12----------------------------------------|
G|--------12-14--12-14~~12-14~~12------------------------------------------|
D|--12-14------------------------------------------------------------------|
A|-------------------------------------------------------------------------|
E|-------------------------------------------------------------------------|
Related for Kiwi tab