Song name
# A B C D E F G H I J K L M N O P Q R S T U V W X Y Z

Maroon 5 - Story tab

Help us improve GuitareTab! Take a short survey!
Maroon 5
"Story"

Standard Tuning

Intro
Guitar 1
E|------------------------------------|
B|------------------------------------|
G|---12---12---12--12----12---12--12--|
D|-10--10----9---9---9-10--10----9----|
A|------------------------------------|
E|------------------------------------|
Continues through verse with slight variation

Guitar 2 is silent

Prechorus

"Be here, just for the moment..."

E|-------------|
B|-------------|
G|----12----12-|
D|-10----10----|
A|-------------|
E|-------------|

Chorus

"Did you know..."

Chords: C (for 2 bars)  F G

E|--10-10-1----3-----|
B|--10-10-1-1--3-3---|
G|--9--9--2--2-4--4--|
D|--10-10-3----5-----|
A|--10-10-3----5-----|
E|--8--8--1----3-----|

Verse 2

Silent for first half then repeat Verse 1

Prechorus 2

Guitar 1 is same

Guitar 2
Tremolo picking

E|-------------|
B|-------------|
G|-12-12-12-12-|
D|-------------|
A|-------------|
E|-------------|

Chorus 2

Guitar 1 is same 

Guitar 2

E|---------------------------------------------------------------------|
B|---------------------------------------------------------------------|
G|-7-9-9-9-9-9-9-9-7-9-9-9-9-9-9-9-7-9-9-9-9-9-9-9-9-9-9-7-7-7-7-7-7-7-|
D|---------------------------------------------------------------------|
A|---------------------------------------------------------------------|
E|---------------------------------------------------------------------|

I'm stumped for the bridge

Back to verse 1

Then chorus 2 again

Repeat to fade with improvisations
Related for Story tab