Song name
# A B C D E F G H I J K L M N O P Q R S T U V W X Y Z

Marques Houston - Circle tab

Marques Houston - Circle
Tabs created by Russell Legaspi


|--3-3---2-0-0-----0-----------------------7-8-7-----2--------------|
|------0---------1------------------8-8h10-----------3--------------|
|--------------2-----2-----------------------------0-2--------------|
|----2-------------------------------------------0-----0------------|
|------------3------------------------0h7---------------------------|
|----------------------------------------------3--------------------|


|--7-7-----7---------------------3-3-------5-------7----------------|
|------------7---------------------------5-------7-------8----------|
|------8-----------8-------------------5-------7-------9------------|
|------------------7-7---------------5-------7-------9--------------|
|----9-----------------------------3-------5-------7----------------|
|-------------------------------------------------------------------|


|----10-8-7-5------------Then repeat from beginning-----------------|
|-------------------------------------------------------------------|
|-------------------------------------------------------------------|
|-------------------------------------------------------------------|
|-------------------------------------------------------------------|
|-------------------------------------------------------------------|
Tap to rate this tab
 
# A B C D E F G H I J K L M N O P Q R S T U V W X Y Z