Song name
# A B C D E F G H I J K L M N O P Q R S T U V W X Y Z

Mars Volta - Inertiatic Esp tab

       INTERTIATIC ESP
        *Outro Solo*
      by the Mars Volta
  ~Tabbed by Nathan Zwiener~


3:17
|---333-2---0-----------|---|
|------------3--2-3-2---|---|
|-4-------------------4-|-3-| Repeat
|-----------------------|---|
|-----------------------|---|
|-----------------------|---|

3:26 (Guitar 2)
|-------------2-3-2-----2-------6-----|
|----3-2------------------3-------7-0-|
|--------2----------------------------|  Repeat x6
|----------2--------0--------2--------|
|-2-----------------------------------|
|-------------------------------------|
He may have used an octave effect, but I don't have one to test with.

3:43                        3:52
|-7-----10----14-----2~-|----------------------|
|-----------------------|-----------------2----|
|-----------------------|-4--------2---4-----4-|
|-----------------------|----------------------|
|-----------------------|----------------------|
|-----------------------|----------------------|

-short pause-

|-7-5~------9---10-9---7---15~-----14--7--7p5p3p2~--3-2-----------0---2--3-2----7~|
|--------------------------------------------------------0-3----------------------|
|-------------------------------------------------------------2-------------------|
|---------------------------------------------------------------------------------|
|---------------------------------------------------------------------------------|
|---------------------------------------------------------------------------------|

~ = Important note, let it ring and throw some vibrato in if you've got it.
Tap to rate this tab
 
# A B C D E F G H I J K L M N O P Q R S T U V W X Y Z