Song name
# A B C D E F G H I J K L M N O P Q R S T U V W X Y Z

Marta Sui Tubi - Vecchi Difetti tab

Tablatura:"How To Play Marta Sui Tubi"
Album:"Muscoli & Dei"
Traccia:"Vecchi Difetti"

Tuning:

1-[E]
2-[B]
3-[G]
4-[D]
5-[A]
6-[E]

Riff:"1a variazione"

1|---------0----------------------------------------------------|
2|-------------0--------------------------0-------------0-------|
3|-----1-----------1---1---1----------3-------3-----4-------4---|
4|-------2---2---2---2------------------4---4---------2---2-----|
5|---4-------------------4------4-/-6-------------0-------------|
6|--------------------------------------------------------------|


Riff:"2a variazione"

1|-------------0---------------|
2|---------0-------0-----------|
3|-----1-----1---1-----1---1---|
4|-------2-----------2---------|
5|---4-------------------4-----|
6|-----------------------------|


Riff:"3a variazione"

1|-----------0-----------------|
2|---------0-0-----------------|
3|-----1-----1-----------------|
4|-------2---2-----------------|
5|---4-------4-----------------|
6|-----------x-----------------|


P.S: Dopo le variazioni (1a-2a-3a) si riprende dallo slide dal "4" al "6" tasto sulla 5a corda

Rit:"Volami affianco..."

1|-----------------------------------------------------|
2|---------0-----------0-------------0-----------0-----|
3|-----6-----------4-------------6-----------4---------|
4|-------6---6-/-4---4---4---------6---6-/-4---4---4---|
5|---4---------------------2-/-4-----------------------|
6|-----------------------------------------------------|


Chiusura:"Guardami cambiare forma..."

1|---0------0--0--0---|
2|---0------0--0--0---|
3|---2------6--4--5---|
4|---2------6--4--5---|
5|---0------4--2--3---|
6|---x------x--2--3---|


Finale:

1|---0--0--0--[0]---|
2|---0--0--0--[5]---|
3|---6--4--5--[4]---|
4|---6--4--5--[5]---|
5|---4--2--3--[3]---|
6|---x--2--3--[x]---|


P.S: L'accordo in parentesi  l'ultimo che viene suonato nella canzone.


Stay Tuned!
Cheers!!!
Tap to rate this tab
 
# A B C D E F G H I J K L M N O P Q R S T U V W X Y Z