Song name
# A B C D E F G H I J K L M N O P Q R S T U V W X Y Z

Martin Garrix - Animals tab

Love the song, but it needed more of an edge. I designed this tab to be played on electric guitar
with distortions! Enjoy!

Drop D

e|--------------------------------------------------------------------------|
B|--------------------------------------------------------------------------|
G|--------------------------------------------------------------------------|
D|---6----6----8----10----13----8----8----6----5----3----6-6----8-8----5----|
A|---6----6----8----10----13----8----8----6----5----3----6-6----8-8----5----|
D|---6----6----8----10----13----8----8----6----5----3----6-6----8-8----5----|
     Ab   Ab   Bb   C     Db    Bb   Bb   Ab   G    F    Ab Ab  Bb Bb  G

e|----------------------|
B|----------------------|
G|----------------------|
D|---6-6----8-8----3----|
A|---6-6----8-8----3----|
D|---6-6----8-8----3----|
     Ab Ab  Bb Bb  F
Tap to rate this tab
 
# A B C D E F G H I J K L M N O P Q R S T U V W X Y Z