Song name
# A B C D E F G H I J K L M N O P Q R S T U V W X Y Z

Martin Grech - Penicilin tab

-------------------------------------------------------------------------------
			     Penicilin -- Martin Grech
----------------------------------------------------------------------------
Tabbed by:Kristien Cooper
Email:vazzler@hotmail.com
the chords are correct and its the whole song but i dont kno how to do the rythm on here 
ull have to listen to the song for that but its easy
This is ma first tab btw but the chords are still perfect n if u want to learn this song 
youll probly herd the song anyway
Tuning:EBGDAE
Keep strumming these chords in the rythm of the song into/verse
e|--0---------x--------------------------------------------------------------|
B|- 3 --------2--------------------------------------------------------------|
G|--2---------0--------------------------------------------------------------|
D|--0---------0--------------------------------------------------------------|
A|--x---------2--------------------------------------------------------------|
E|--x---2--3--3--------------------------------------------------------------|
Pre/Chorus
e|--0----0------------------------------------------------------------------|
B|--5p0--3h2----------------------------------------------------------------|
G|--0----0------------------------------------------------------------------|
D|--0----0------------------------------------------------------------------|
A|--x----x------------------------------------------------------------------|
E|--5----3------------------------------------------------------------------|
this is the CHORUS, sorry bout not havin the rythm but the chords are exact on
e|--0---0-------------------------------------------------------------------|
B|--3---2-------------------------------------------------------------------|
G|--0---2-------------------------------------------------------------------|
D|--x---2-------------------------------------------------------------------|
A|--2---0-------------------------------------------------------------------|
E|--3---x-------------------------------------------------------------------|

e|--3---5--7--9--10--12--14-------------------------------------------------|
B|--x---x--x--x--x----x---x-------------------------------------------------|
G|--0---0--0--0--0----0---0-------------------------------------------------|
D|--0---0--0--0--0----0---0-------------------------------------------------|
A|--x---x--x--x--x----x---x-------------------------------------------------|
E|--3---5--7--9--10--12--14-------------------------------------------------|
then you just repeat the rest of the song accordingly. if youve herd this version of the 
then it should be really easy for ya with the chords coz ther correct

| /  slide up
|   slide down
| h  hammer-on
| p  pull-off
| ~  vibrato
| +  harmonic
| x  Mute note
===============================================================================
Tap to rate this tab
# A B C D E F G H I J K L M N O P Q R S T U V W X Y Z