Song name
# A B C D E F G H I J K L M N O P Q R S T U V W X Y Z

Martin Mckenna - Take Control tab

Artist: Amerie    http://www.amerie.net/
Track: Take Control
Tabber: Woodshed


e|-------------------------------------------------------------------------|
B|-------------------------------------------------------------------------|
G|-------------------------------------------------------------------------|
D|-------------------------------------------------------------------------|
A|---5-5-5-5-5-5-5-5-5-5-5-5-5-5-5-5---------------------------------------|
E|-------------------------------------------------------------------------|

e|-------------------------------------------------------------------------|
B|-------------------------------------------------------------------------|
G|-------------------------------------------------------------------------|
D|-------------------------------------------------------------------------|
A|---------1-1-1-0-----1-0----------1-1-1-0-----1-0------------------------|
E|--3--3------------3------3-----3-----------3-----------------------------|

e|-------------------------------------------------------------------------|
B|-------------------------------------------------------------------------|
G|-------------------------------------------------------------------------|
D|-------------------------------------------------------------------------|
A|----------1-1-1-0-----1-0---------1-1-1-0----1-0-------------------------|
E|--1h3-3------------3------3-----3----------3---------3-------------------|
Tap to rate this tab
 
# A B C D E F G H I J K L M N O P Q R S T U V W X Y Z