Song name
# A B C D E F G H I J K L M N O P Q R S T U V W X Y Z

Martin Nievera - Kahit Isang Saglit tab


  Paano........ang puso kong ito   ngaung wla kna sa buhay ko..
      D     DM7     A      Bm           Em      A        D
e|----2------2-------------------------------------------2------2---|
B|---3-3----2-2-----2------3------3--------------2------3-3----3-3--|
G|--2---2--2---2---2-2----4-4----4-4------0-----2-2----2---2--2---2-|
D|-0-----0--------2---2--4---4--4---4----2-2---2---2--0-----0-------|
A|---------------0------2------2--------2---2-0---------------------|
E|-------------------------------------0----------------------------|



   Paano.......mga pangarap,,,, mga pangako sa bwat isa.....
      Bm             F#5           Em       G         A
e|-------------------------------------------------------------------|
B|-----3------3---------------------------------------2------2-------|
G|----4-4----4-4---------------------0--------4------2-2----2--2-----|
D|---4---4--4---4-----4-----4-------2-2------5-5----2---2--2----2----|
A|--2-----2----------4-4---4-4-----2---2----5---5--0------0----------|
E|-----------------2----2-2---4--0--------3--------------------------|


Cho.
  Sana ...ikay mling makita ko.. damhin  ang tibok ng puso ko...
     F#5       Bm        Em            A              D
e|----------------------------------------------------2-----2--------|
B|---------------3---------------------2------2------3-3---3-3-------|
G|--------------4-4------0-----0------2-2----2-2----2---2-2----------|
D|----4---4----4---4----2-2---2------2---2--2---2--0-----0-----------|
A|---4-4-4-4--2--------2---2-2------0-----0------0-------------------|
E|--2---2---2---------0-----0-----2----------------------------------|
 
  Sana ykapin mo akong muli kahit sndali kahit sang sglit myakp ka..
      Bm            F#5     G       Em      A     D    
e|------------------------------------------------2----2--------------|
B|----3-----3-------------------------------2----3-3---3--------------|
G|---4-4---4-4---------------4-------0-----2----2---2--2--------------|
D|--4---4-4---4-----4-------5-5-----2-2---2----0-------0--------------|
A|-2-----2---------4-4-----5---5---2---2-0----------------------------|
E|---------------2----2--3--------0-----------------------------------|

 yan....... rate plsss.....
Tap to rate this tab
# A B C D E F G H I J K L M N O P Q R S T U V W X Y Z