Song name
# A B C D E F G H I J K L M N O P Q R S T U V W X Y Z

Masaaki Kishibe - Yesterday Once More tab

Yesterday Once More - Masaaki Kishibe - My Favorites
Open D Tuning - DADF#AD - Capo Fret 3
BPM = 105
Refer to my profile about requesting tabs


      E  E    E  E  E  E  E  E     E  E  E  E  E  E    E  E   
D ||-------------------0--------|--------------0-------------|
A ||--------2g4-----4--------2--|--L--------2-----2----------|
F#||--------1g3-----3--------1--|--L-----1-------------------|
D ||-----0-------0--------x--2--|--L--2-------------------0--|
A ||----------------------x--0--|--L-----------------0g2-----|
D ||--0-------------------------|----------------------------|


  E  E    E  E  E  E  E  E     E  E  H        E   E   
-------------------0--------|------------------------|
--------2g4-----4--------2--|--------2---------------|
--------1g3-----3--------1--|--------1---------------|
-----0-------0--------x--2--|--------2--------0h--2--|
----------------------x--0--|-----0------------------|
--0-------------------------|------------------------|


    E  E  Q    E  E  E  E     E  E  E  E  E  E  E  E   
|--------------------------|--------------------------|
|---------0----0-----0-----|--2--0-----------------0--|
|*--0-------------0-----0--|-----------0--------0-----|
|*-----0-------------0-----|--------0--------0--------|
|-----------------0--------|--------------------------|
|---0----------0-----------|--4-----------4-----------|


  ^                                                   
  E   E  E  E  E  Q    E     E  E  E  E  E  E  E  E   
--------------------------|--------------------------|
--2S-----4-----0--2----2--|-----------2-----------0--|
--1-----------------------|--------0-----------0-----|
------0-----0-------------|-----2-----------2--------|
--2------------2-------0--|--0-----------0-----------|
--------------------------|--------------------------|


  E  E  E  E  E  E  E    E     E  E  E  E  E  Q    E   
--------4-----2--0----------|-------------------------|
--2--------------------2g4--|-----------0-------------|
-----0-----0--------x--1g3--|--------3-----0--3----0--|
--------------------x-------|-----2-------------------|
----------------------------|--------------2----------|
--5-------------------------|--4----------------------|


  E  E  E  E   E  E  E  E     E  E  E  Q    E  E   E     
------------------------2--|--------0--0---------------||
------------------0--2--2--|--------0--0---------------||
-----------0h--1-----------|--------------------------*||
--2-----2------------------|-----2----------0--0h--2--*||
-----0---------------------|--0------------------------||
--2------------------------|---------------------------||


  ^                                                                            
  E  E  E  E  E  E  E  E     E  E  Q    E  E  E  E     E  E  E  Q    E  E  E   
--------------------------|-------------------2-----|-------------------0-----|
--2-----4-----0--2-----2--|-------------4-----------|--5--4----------4-----4--|
--1-----------------------|--------0-------0-----0--|--------5--5-------------|
-----0-----0--------x-----|-----0-------------------|-------------------------|
--2-----------2-----x--0--|--0----------2-----------|--2--------0-------------|
--------------------------|-------------------------|-------------------------|


  E  E  E  Q    E  E  E     Q    Q    E  E  E  E     Q    Q    Q    Q     
--0----------------------|--0----0-------0-----2--|--L----2----0----2----|
----------------------4--|--0----0----2--2--x--2--|--L----2----2----2----|
--------5--5-------5-----|--5----5-------1--x--1--|--L----1----1----1----|
-----0----------0--------|---------------2-----2--|--L----2--------------|
--0--------0-------------|------------------------|----------------------|
-------------------------|--5---------2-----------|----------------------|


   E  E  E  E  E  E  E  E     E  E  E  Q    E  E  E   
--/4--4--4--4--------2--0--|-----0-------------------|
---0--0--0--0--------------|--4-----4--2----------0--|
--/3--3--3--3--------1-----|-------------------0-----|
---------------0-----------|----------------0--------|
---------------------------|--2--------2-------------|
---0--------------0--------|-------------------------|


  E  E  E   E  E  E  E  E     E  E  E  Q    E  E   E   
---------------------4--0--|-----0-------------0h--2--|
---------------------------|--4-----4--2--------------|
---------------0-----------|-------------------0h--1--|
--------0h--2-----0--------|----------------0---------|
-----0---------------------|--2--------2--------------|
--0------------------------|--------------------------|


   E  E  E  E  E  E  E  E     E  E  E  Q    E  E  E   
--/4--4--4--4--------2--0--|-----0-------------------|
---0--0--0--0--------------|--4-----4--2----------0--|
--/3--3--3--3--------1-----|-------------------0-----|
---------------0-----------|----------------0--------|
---------------------------|--2--------2-------------|
---0--------------0--------|-------------------------|


  E  E  E  E  E  E  E  E     E  E  E  E  E  E  E   E   
--------------------------|---------------------------|
--------------------------|--------2-----2-----2S--4--|
-----------1--------------|--------1-----1-----1S--3--|
--------0-----------------|-----2-----2-----2---------|
-----2-----------------0--|--L------------------------|
--2-----------2--4--5-----|---------------------------|


  E  E  E  Q    E  E  E     E  E  E  Q    E  E  E      E  E  E  E  E  E  E  E   
--0-----0--2-------0-----|--0-----0--2-------0--2--|--/4-----4-----2--0--------|
-----4----------------4--|-----4-------------------|--/5-----5-----------x-----|
-------------------------|-------------------------|---------------------x--5--|
----------------0--------|-------------------------|------0-----0--------------|
--2--------2-------------|--1--------1----1--------|---------------0-----------|
-------------------------|-------------------------|---0--------------------6--|


                                                 v     v                      
  Q    E  E  E  E  E  E     E  E  E  E  E  E  E  E     Q.     E  E  S E.  E   
-------------------------|-----------------------0--|--L---------------------|
----------------2-----0--|--------------0--------0--|--L------------------0--|
--L----0-----0-----0-----|-----------0-----0-----1--|--L------0--0-----------|
----------0--------------|--------2-----------2--2--|--L------------2-0------|
-------------------------|-----0-----------------0--|--L---------------------|
--L----------6-----------|--0--------------------0--|--L---------------------|


  E  E    E  E  E  E  E  E     E  E  E  E  E  E    E  E   
-------------------0--------|--------------0-------------|
--------2g4-----4--------2--|--L--------2-----2----------|
--0-----1g3-----3--------1--|--L-----1-------------------|
-----0-------0--------x--2--|--L--2-------------------0--|
----------------------x--0--|--L-----------------0g2-----|
--0-------------------------|----------------------------|


                                       NH               
  E  E    E  E  E  E  E  E     E  E    H        E   E   
-------------------0--------|--------<>7---------------|
--------2g4-----4--------2--|--------<>7---------------|
--------1g3-----3--------1--|--------<>7---------------|
-----0-------0--------x--2--|-------------------0h--2--|
----------------------x--0--|-----0--------------------|
--0-------------------------|--------------------------|


    E  E  E  E  E  E  E  E     E  E  E  E  E  E  E  E   
|---------------------------|--------------------------|
|---------0-----0-----0-----|--2--0-----------------0--|
|*--0--------------0-----0--|-----------0--------------|
|*-----0-----0--------0-----|--------0--------0--0-----|
|------------------0--------|--------------------------|
|---0-----------0-----------|--4-----------4-----------|


  ^                                                                             
  E  E  E  E  E  Q    E     E  E  E  E  E  E  E  E     E  E  E  E  E  E  E  E   
-------------------------|--------------------------|--------4-----2--0--------|
--2-----4-----0--2----2--|-----------2-----------0--|--2--------------------2--|
--1----------------------|--------0-----------0-----|-----0-----0--------x--1--|
-----0-----0-------------|-----2-----------2--------|--------------------x-----|
--2-----------2-------0--|--0-----------0-----------|--------------------------|
-------------------------|--------------------------|--5-----------5-----------|


  E  E  E  E  E  Q    E     E  E  E  E   E  E  E  E   
-------------------------|------------------------0--|
-----------0-------------|------------------0--------|
--------3-----0--3----0--|-----------0h--1-----1-----|
-----2-------------------|--2-----2------------------|
--------------2----------|-----0---------------------|
--4----------------------|--2------------------------|


                                ^                        
  E   E  E  E  Q    E   E       E  E  E  E  E  E  E  E   
------------0---------------||--------------------------|
----------------------------||--2-----4-----0--2-----2--|
---------4-----------------*||--1-----------------------|
-----/5-------------0h--2--*||-----0-----0--------0-----|
--0------------0------------||--2-----------2--------0--|
----------------------------||--------------------------|


  E  E  Q    E  E  E  E     E  E  E  Q    E  E  E     E  E  E  Q    E  E  E   
-------------------2-----|-------------------0-----|--0----------------------|
-------------4-----------|--5--4----------4-----4--|----------------------4--|
--------0-------0-----0--|--------5--5-------------|--------5--5-------5-----|
-----0-------------------|-------------------------|-----0----------0--------|
--0----------2-----------|--2--------0-------------|--0--------0-------------|
-------------------------|-------------------------|-------------------------|


  Q    Q    E  E  E  E     Q    Q    Q    Q       E  E    E  E  E  E  E  E   
--0----0-------0-----2--|--L----2----0----2----|-------------------0--------|
--0----0----2--2--x--2--|--L----2----2----2----|--------2g4-----4--------2--|
--5----5-------1--x--1--|--L----1----1----1----|--0-----1g3-----3--------1--|
---------------2-----2--|--L----2--------------|-----0-------0--------x--2--|
------------------------|----------------------|----------------------x--0--|
--5---------2-----------|----------------------|--0-------------------------|


  E  E  E  E  E  E  E  E      E  E  E  E  E  E  Q       E  E  E  Q    E  E  E   
--------------0-----2-----|--/4--4--4--4-----2--0----|-----0-------------------|
--L-----2-----2-----2-----|---0--0--0--0-------------|--------4--2----------0--|
--L-----1-----1-----1-----|--/3--3--3--3-----1-------|-------------------0-----|
--L-----2-----------------|---------------x----------|----------------0--------|
--L--0-----0-----0-----0--|---------------x----------|--0--------2-------------|
--------------------------|---0----------------------|-------------------------|


  E  E  E   E  E  E  E  E     E  E  E  Q    E  E   E   
---------------------4--0--|-----0-------------0h--2--|
---------------------------|--4-----4--2--------------|
---------------0-----------|-------------------0h--1--|
--------0h--2-----0--------|----------------0---------|
-----0---------------------|--2--------2--------------|
--0------------------------|--------------------------|


   E  E  E  E  E  E  E  E     E  E  E  Q    E  E  E   
--/4--4--4--4--4-----2--0--|-----0-------------------|
---0--0--0--0--0-----------|--4-----4--2----------0--|
--/3--3--3--3--3-----1-----|-------------------0-----|
------------------0--------|----------------0--------|
---------------------------|--2--------2-------------|
---0-----------0-----------|-------------------------|


  E  E  E  E  E  E  E  E     E  E  E  E  E  E  Q     
--------------------------|--------------0-----2----|
--------------------------|--------2-----2-----2----|
-----------1--------------|--------1-----1-----1----|
--------0-----------------|-----2-----2-----2-------|
-----2-----------------0--|--L----------------------|
--2-----------2--4--5-----|-------------------------|


   E  E  E  E  E  E  E  E     E  E  E  Q    E  E  E   
--/4--4--4--4--------2--0--|-----0-------------------|
---0--0--0--0--------------|--4-----4--2----------0--|
--/3--3--3--3--------1-----|-------------------0-----|
---------------0-----------|----------------0--------|
---------------------------|--2--------2-------------|
---0--------------0--------|-------------------------|


  E  E  E   E  E  E  E  E     E  E  E  Q    E  E   E   
---------------------4--0--|-----0-------------0h--2--|
---------------------------|--4-----4--2--------------|
---------------0-----------|-------------------0h--1--|
--------0h--2-----0--------|----------------0---------|
-----0---------------------|--2--------2--------------|
--0------------------------|--------------------------|


   E  E  E  E  E  E  E  E     E  E  E  Q    E  E  E   
--/4--4--4--4--4-----2--0--|-----0-------------------|
---0--0--0--0--0-----------|--4-----4--2----------0--|
--/3--3--3--3--3-----1-----|-------------------0-----|
------------------0--------|----------------0--------|
---------------------------|--2--------2-------------|
---0-----------0-----------|-------------------------|


  E  E  E  E  E  E  E  E     E   E  E  E  E  E  E  E   
--------------------------|------------0--4-----0-----|
--------------------------|------------------7-----4--|
-----------1--------------|---------4-----------------|
--------0-----------------|-----/5--------------------|
-----2-----------------0--|--L------------------------|
--2-----------2--4--5-----|---------------------------|


  Q    E  E  E  E  E  E     W                  
----------------------0--|--L----------------||
--L----------------0-----|-------------------||
----------------0--------|-------------------||
-------------2-----------|-------------------||
----------0--------------|-------------------||
-------0-----------------|-------------------||




Duration Legend
---------------
W - whole
H - half
Q - quarter
E - 8th
S - 16th
T - 32nd
X - 64th
. - note dotted
|-n-|  - n-tuplets


Tablature Legend
----------------
L - tied note
x - dead note
g - grace note
(n) - ghost note
> - accentuded note
NH - natural harmonic
AH - artificial harmonic
TH - tapped harmonic
SH - semi harmonic
PH - pitch harmonic
h - hammer on
p - pull off
b - bend
br - bendRelease
pb - preBend
pbr - preBendRelease
brb - bendReleaseBend
\n/ - tremolo bar dip
\n - tremolo bar dive
-/n - tremolo bar Release up
/n\ - tremolo bar inverted dip
/n - tremolo bar return
-\n - tremolo bar Release down
S - shift slide
s - legato slide
/ -  slide into from below or out of upwards
\ -  slide into from above or out of downwards
~ - vibrato
W - wide vibrato
tr - trill
TP - tremolo picking
T - tapping
S - slap
P - pop
< - fade in
^ - brush up
v - brush down
Tap to rate this tab
 
# A B C D E F G H I J K L M N O P Q R S T U V W X Y Z