Mason Jennings - Machines tab

-----------------------------------------------------------------------------
Machines - Mason Jennings
180 South Soundtrack
-----------------------------------------------------------------------------
Tabbed by: eazimmerman
Email: popthethird@gmail.com

! Please Note: This song is not "Sorry Signs On Cash Machines" !

Tuning: EADGBe (standard)

Intro  
e| |------------------------------------------------------------------------|
B| |2---------0-------------------------------------------------------------|
G| |-----1------3--1--------------------------------------------------------|
D| |------------------4--6---3-3---4--1-1-----------------------------------|
A| |----------------------------------------4/6/8---4-4---6-----------------|
E| |--------------------------------------------------------7-7---6/7-/9--4-|


************************************

| /   slide up
| \   slide down
| h   hammer-on
| p   pull-off
| ~   vibrato
| +   harmonic
| x   Mute note
| b   Bend
| pb  Pre-bend
| br  Bend release
| pbr Pre-bend release
| brb Bend release bend

************************************
Tap to rate this tab
 
# A B C D E F G H I J K L M N O P Q R S T U V W X Y Z