Massive Attack - Saturday Come Slow tab

-----------------------------------------------------------------------------
			     SATURDAY COME SLOW - Massive Attack
-----------------------------------------------------------------------------
Tabbed by:sofaking011
Email:zeegerman011@gmail.com

Saturday Come Slow - Massive Attack ft. Damon Albarn

It's a simple, yet a heart-tearing song I decided to transcribe as sort of a tribute to 
recently lost friend.

Tuning:Drop C
(Do note that I am using a set of nylon strings on a classical guitar and thus decided 
go for a more natural, ringing sound by playing the main loop on E(C), A(G) and D(C) strings.)

Main Loop
d|-----------------|-----------------|-----------------|-----------------|
A|-----------------|-----------------|-----------------|-----------------|
F|-----------------|-----------------|-----------------|-----------------|
C|-------4---------|-------10--------|-------11--------|-------5---------|
G|----0------------|----8------------|----7------------|----3------------|
C|-0---------------|-8---------------|-7---------------|-3---------------|

d|-----------------|
A|-----------------|
F|-------------0-0-|
C|-------------5-5-|
G|-------------3-3-|
C|-------------3-3-|


Chours

gtr1
d|------------------------|------------------------|
A|------------------------|------------------------|
F|------------------------|------------------------|
C|-1--1--1-1---1-1-1--1-1-|-5--5--5-5---8-8-8--8-8-|
G|-1--1--1-1---1-1-1--1-1-|-5--5--5-5---8-8-8--8-8-|
C|-1--1--1-1---1-1-1--1-1-|-5--5--5-5---8-8-8--8-8-|
                              *1


gtr2
d|-5---6---5---3---|-5---6---5---3---|
A|---3---3---3---3-|---3---3---3---3-|
F|-----------------|-----------------|
C|-----------------|-----------------|
G|-----------------|-----------------|
C|-----------------|-----------------|

*1: gtr 2 jumps in

Since I transcribed this by ear, I recommend you to listen to the song for timing and 
refference.

Any kind of corrections are more then welcome.

************************************

| /   slide up
| \   slide down
| h   hammer-on
| p   pull-off
| ~   vibrato
| +   harmonic
| x   Mute note
| b   Bend
| pb  Pre-bend
| br  Bend release
| pbr Pre-bend release
| brb Bend release bend

************************************
Tap to rate this tab
 
# A B C D E F G H I J K L M N O P Q R S T U V W X Y Z