Song name
# A B C D E F G H I J K L M N O P Q R S T U V W X Y Z

Masters Apprentices - Turn Up Your Radio tab

Masters Apprentices - Turn up your Radio

1st fiff 2x
e:-------------------------------|
B:-------------------------------|
G:-------------------------------|
D:----7-----5--7------7-----5--7-|
A:-------7---------------7-------|
E:-5--------------5-5------------|


2nd riff 1x
e:-------------------------------|
B:-------------------------------|
G:----7-----5--7------7-----5--7-|
D:-------7---------------7-------|
A:-5--------------5-5------------|
E:-------------------------------|


1st fiff 1x

e:-------------------------------|
B:-------------------------------|
G:----9-----7--9------7-----5--7-|
D:-------9---------------7-------|
A:-7--------------5-5------------|
E:-------------------------------|

1st fiff 1x


chords:

A, D and E
Tap to rate this tab
# A B C D E F G H I J K L M N O P Q R S T U V W X Y Z