Song name
# A B C D E F G H I J K L M N O P Q R S T U V W X Y Z

Mastodon - March Of The Fire Ants tab

Intro guitar #1
|-------------------------------------------------------------|
|-------------------------------------------------------------|
|-------------------------------------------------------------|
|-----5-----------------------------------------------------5-|
|-2-5-3-2h3p2-2h3p2-2h3p2-2h3p2-2h3p2-2h3p2-2h3p2-2h3p2-2-5-3-|
|-0-3--------------------0-----------0------------------0-3---|

Guitar #2 same time with #1
|-------------------------------------------------------------|
|-------------------------------------------------------------|
|-------------------------------------------------------------|
|-----5-4---------------------------------------------------5-|
|-2-5-3-2-----------------------------------------------2-5-3-|
|-0-3---------------------------------------------------0-3---|

Guitar #1
|-------------------------------------------------------------|
|-------------------------------------------------------------|
|-------------------------------------------------------------|
|-----------------------------------------------------5-------|
|-2h3p2-2h3p2-2h3p2-2h3p2-2h3p2-2h3p2-2h3p2-2h3p2-2-5-3-------|
|------------------0-----------0------------------0-3---------|


Guitar#2
|-------------------------------------------------------------|
|-------------------------------------------------------------|
|-------------------------------------------------------------|
|-4---------------------------------------------------5-4-----|
|-2--let note ring--------------------------------2-5-3-2-----|
|-------------------------------------------------0-3---------|


Guitar #1
|-------------------------------------------------------------|
|-------------------------------------------------------------|
|-------------------------------------------------------------|
|-----------------------------------------------------5-------|
|-2h3p2-2h3p2-2h3p2-2h3p2-2h3p2-2h3p2-2h3p2-2h3p2-2-5-3-------|
|------------------0-----------0------------------0-3---------|


Guitar#2
|-------------------------------------------------------------|
|---------------------------------------------------------let-|
|--------------------------------------------------------note-|
|----------------------------------------------------5-4-ring-|
|------------------------------------------------2-5-3-2------|
|------------------------------------------------0-3----------|


Guitar #1 X4
|-------------------------------------------------------------|
|-------------------------------------------------------------|
|-------------------------------------------------------------|
|-----------------------------------------------------5-------|
|-2h3p2-2h3p2-2h3p2-2h3p2-2h3p2-2h3p2-2h3p2-2h3p2-2-5-3-------|
|------------------0-----------0------------------0-3---------|

Guitar #2 X4
|----------------------------------------------------------------------|
|----------------------------------------------------------------------|
|-h9p8-8h9p8-8h9p8-------------------11h12p11-11h12p11-11h12p11--------|
|--------------------9h10p9-9h10p9----------------------------------5--|
|---------------------------------------------------------------2-5-3--|
|------------------0---------------0----------------------------0-3----|
Tap to rate this tab
# A B C D E F G H I J K L M N O P Q R S T U V W X Y Z