Song name
# A B C D E F G H I J K L M N O P Q R S T U V W X Y Z

Mat Kearney - Runaway tab

Mat Kearney
              Runaway

      (New song from the movie Soul Surfer)


e|--------------7-7----------------9-9-7-7-------------|
B|--7-7--10-10------10-10-----7-7----------10-10-------|
G|-----------------------------------------------------|
D|-----------------------------------------------------|
A|-----------------------------------------------------|
E|-----------------------------------------------------|

e|--------------7-7-----------7-7----------------------|
B|--7-7--10-10------10-10----------10-10-7-7-5-5-------|
G|-----------------------------------------------------|
D|-----------------------------------------------------|
A|-----------------------------------------------------|
E|-----------------------------------------------------|

             And Repeat
Tap to rate this tab
 
# A B C D E F G H I J K L M N O P Q R S T U V W X Y Z