Song name
# A B C D E F G H I J K L M N O P Q R S T U V W X Y Z

Mat Kerekes - Wisteria chords

Highlighted       Show chord diagrams
-----------------------------------------------------------------------------
                             WISTERIA - Mat Kerekes
-----------------------------------------------------------------------------
Tuning: Standard Tuning, Capo on 1st fret


Chords:
G       D*       C       D
|---|   |----|   |---|   |---|
|---|   |--7-|   |-5-|   |(3)|
|-4-|   |--7-|   |-5-|   |-2-|
|-5-|   |4/7-|   |-5-|   |-0-|
|-5-|   |2/5-|   |-3-|   |-0-|
|-3-|   |----|   |---|   |---|
         *does that quick slide every time he plays it during the verse


G
Oh, what a life for a lover. 
      D*
I was underneath it all as you stumbled 
C                         D
tell me where did you go? 
G
And oh what an end to your summer, 
      D*
I was bandaging your bones. 
          C                           D
I carried on although i know you wont. 
G
And oh you speak your words but you stutter.
           D*
I find the cure in my heart its stone and in bathroom stalls
C                   D 
I figured you'd know.
      C 
I was hiding where were you? 
    D
had something to lose. 
      C
I was hiding where were you? 
                       D
had nothing better to do.


G
And oh how you love one another 
        D*
wishing for some kind of hope is that what you want? 
C                      D
You always seem to know. 
G
And oh whats it like to be under? 
       D*
Yeah i saw your face fold as you got to close 
C                           D
slipping out of your clothes. 
        C
I could never bare the thought,
          D 
spent all year on my bedroom floor, 
          C                              D
I've been walking someone to my car door.

G         D*        C         D
And oh

G
And oh I loved you most in the summer, 
         D*
now your body has been put to shame that innocent face 
C                  D
  has gone to waste.


Lead bit:
  G                D*            C                  D
e|------------------------------------------------------------------|
B|-----------------------------------0------------------------------|
G|-4/2---4/2----0----------------0---4/2--4/2---0-0-----------------|
D|-----------------4---4/2---4-4--------------------4---4/2---0-----|
A|------------------------------------------------------------------|
E|------------------------------------------------------------------|
Tap to rate this tab
 
# A B C D E F G H I J K L M N O P Q R S T U V W X Y Z