Song name
# A B C D E F G H I J K L M N O P Q R S T U V W X Y Z

Matchbox 20 - Shame tab

ARTIST: Matchbox Twenty
ALBUM: Yourself or Someone Like you
SONG: Shame

TABBED BY: Stacey Hutcheon [stacetopher@yahoo.co.uk]

NB - This song is actually played with a capo but I have
     tabbed it without and it sounds the same

==[INTRO]=====
                        
e|--------------------------0-----2----0-----|
B|----------7------------------0----------0--|
G|-------8-----8-----------------------------|
D|-----9---------9--------2------------------| x4
A|-------------------------------------------|
E|--7----------------------------------------|

 [A second guitar comes in strumming after this has been played twice]

==[VERSE]=====

e|--7--7-7-7-7----0--0-0-0-0--|
B|--7--7-7-7-7----0--0-0-0-0--|
G|--8--8-8-8-8----1--1-1-1-1--|
D|--9--9-9-9-9----2--2-2-2-2--| x4
A|--9--9-9-9-9----2--2-2-2-2--| 
E|--7--7-7-7-7----0--0-0-0-0--|

 [Picked section (INTRO) continues under first part of VERSE]

e|--7-2--0--2--7--|--7-2--0--2--|
B|--7-2--0--2--7--|--7-2--0--2--|
G|--8-3--1--3--8--|--8-3--1--3--|
D|--9-4--2--4--9--|--9-4--2--4--| [Not too sure about this rhythm -
A|--9-4--2--4--9--|--9-4--2--4--|  you really have to listen for it]
E|--7-2--0--2--7--|--7-2--0--2--|

e|--4------4~--------4----------|
B|----4--------------------5----|
G|------4---------4----4--------|
D|------------------------------|
A|------------------------------|
E|------------------------------|

==[CHORUS]=====

e|--7--7-7-7----4--4-4-4----2--2-2-2----0--0-0-0--|
B|--7--7-7-7----4--4-4-4----2--2-2-2----0--0-0-0--|
G|--8--8-8-8----5--5-5-5----3--3-3-3----1--1-1-1--|
D|--9--9-9-9----6--6-6-6----4--4-4-4----2--2-2-2--| x2
A|--9--9-9-9----6--6-6-6----4--4-4-4----2--2-2-2--|
E|--7--7-7-7----4--4-4-4----2--2-2-2----0--0-0-0--|

  [Repeat INTRO x 2 rather than x 4]

  [Repeat VESRE]

  [Repeat CHORUS X2 - Continue to play last E chord until BRIDGE starts]

==[BRDIGE]=====

e|--2--2-2-2----0--0-0-0----4--4-4-4--4--4-4-4--|
B|--2--2-2-2----0--0-0-0----4--4-4-4--4--4-4-4--|
G|--3--3-3-3----1--1-1-1----4--4-4-4--4--4-4-4--|
D|--4--4-4-4----2--2-2-2----6--6-6-6--6--6-6-6--| x3
A|--4--4-4-4----2--2-2-2----6--6-6-6--6--6-6-6--|
E|--2--2-2-2----0--0-0-0----4--4-4-4--4--4-4-4--|

  [On 3rd time through hold the first G#m chord]

  [Repeat VERSE]

  [Repeat CHORUS x2 - Continue to strum E
   chord and ring out for the final chord]


I hope this tab is useful and that it's easy to read and
understand. Feel free to e-mail me should you have any
comments or questions. Cheers =D
Tap to rate this tab
 
# A B C D E F G H I J K L M N O P Q R S T U V W X Y Z