Song name
# A B C D E F G H I J K L M N O P Q R S T U V W X Y Z

Matchbox 20 - Soul tab

-------------------------------------------------------------------------------
			    Soul - Matchbox 20
-------------------------------------------------------------------------------
Tabbed by:liquid_joesh

hey guys whats up! This is my first tab and I am almost 99% sure this is correct.
I believe the intro and verse are the same but im still workin on the chorus. This
is a great song and its easy to play but there arent any tabs for it. So tell me
what you think and by all means correct me if something doesnt sound right.


Tuning:Standard
Intro-2x
e|--------------------------------------------------------------------------|
B|--------------------------------------------------------------------------|
G|--6-6--6-6-8-8-8--9-9-9--9-8-6-6--------------9-8-6-6---------------------|
D|--7-7--7-7-7-7-7--7-7-7--7-7-7-7h9------------7-7-7-7h9-------------------|
A|-------------------------------------6h9p6---------------6h9p6-----4h6--4-|
E|--------------------------------------------------------------------------|

verse-2x
e|--------------------------------------------------------------------------|
B|--------------------------------------------------------------------------|
G|--6-6--6-6-8-8-8--9-9-9--9-8-6-6--------------9-8-6-6---------------------|
D|--7-7--7-7-7-7-7--7-7-7--7-7-7-7h9------------7-7-7-7h9-------------------|
A|-------------------------------------6h9p6---------------6h9p6-----4h6--4-|
E|--------------------------------------------------------------------------|
Tap to rate this tab
# A B C D E F G H I J K L M N O P Q R S T U V W X Y Z