Song name
# A B C D E F G H I J K L M N O P Q R S T U V W X Y Z

Matchbox 20 - Crutch tab

Help us improve GuitareTab! Take a short survey!
intro
-|----------------------------------------------------------------------------|
-|---------------8-------6-------6---------------8-------6--------8-----------|
-|------5--h7-------7----------7------5--h7--------7-----------5--------------|
-|--55--------5-------5-----5------55----------5------5-----5-----------------|
-|----------------------------------------------------------------------------|
-|----------------------------------------------------------------------------|

-|----------------------------------------------------------------------------|
-|-----------------8--------6-------6---------------8-----6-------8-----------|
-|------5---h7--------7----------7---------5-h7-------7--------5--------------|
-|--55---------5---------5-----5-------55---------5-----5----5---------5------|
-|---------------------------------------------------------------------3------|
-|----------------------------------------------------------------------------|

pretty much after this parts of the intro are played differently, the song doesnt
contain that much guitar, oh yea heres the lead.
-|----------------------------------------------------------------------------|
-|--15------------------------------------------------------------------------|
-|--15---17-15--17b--15-----15------------15----17---15-16H-17H--15--17--15---|
-|----------------------17-------15---17--------------------------------------|
-|----------------------------------------------------------------------------|
-|----------------------------------------------------------------------------|


-|-----18--------18-----18-----------------------------------------------------|
-|-----------------------------------------------------------------------------|
-|17b------17br------17------15----1715--------15---1519-------18----18b-------|
-|-----------------------------------------17----------------------------------|
-|-----------------------------------------------------------------------------|
-|-----------------------------------------------------------------------------|

b means bend, br means bend and slowy release,  means slide h means hammer.
leads not hard you should listen to how the song plays it before you try it
Related for Crutch tab