Song name
# A B C D E F G H I J K L M N O P Q R S T U V W X Y Z

Matchbox 20 - Downfall tab

verse                                   verse(lead)
e(-----------------------------------)(-----------------)
b(------3---1--3-------1-------------)(----5/7--/5------)
g(------2---2--2-------2-------4-5-9-)(--4---------4-4b-)
d(--2---0---2-20---2---2---0---4-5-9-)(-----------------)
a(--2---------2----2-------2---2-3-7-)(-----------------)
E(-------------------------3---------)(-----------------)

chorus
e(-------------------)
b(--------------3333-)
g(--------------2222-)
d(--2222222200000000-)
a(--222233332222-----)
E(----------3333-----)

second chorus(lead)
e(------------------------------)
b(-------10-10h12-12b------8-10-)
g(--9-11--------------9-11------)
d(------------------------------)
a(------------------------------)
E(------------------------------)

during the bridge, the lead is very faint, but it's there
e(--777----)(--11-11h12-11-9-7-----)(--14----16-)
b(-----876-)(------------------875-)(-----12----)
g(---------)(----------------------)(-----------)
d(---------)(----------------------)(-----------)
a(---------)(----------------------)(-----------)
E(---------)(----------------------)(-----------)
              these two jump back and forth
Tap to rate this tab
# A B C D E F G H I J K L M N O P Q R S T U V W X Y Z