Matchbox Twenty - All I Need tab

-----------------------------------------------------------------------------
			 All I Need Solo - Matchbox Twenty
-----------------------------------------------------------------------------
Here's the solo to All I Need by matchbox twenty.

Tuning: Standard

   Its Kind of a drag.
e|-------------------------------|------------------------------------------|
B|-------------------------------|------------------8-10-10b12-10-8---------|
G|----------------------9pb11-r9-|-7--7-7-8-8--9--9-----------------9-------|
D|-------------------------------|------------------------------------------|
A|-------------------------------|------------------------------------------|
E|-------------------------------|------------------------------------------|

e|----------------------------------10----------7-----7-11-------11-11b12---|
B|-------------------8-10-10pb12r10----10b12---10hb12-------hb10------------|
G|-7--7-7-8---8b9--9--------------------------------------------------------|
D|----------9---------------------------------------------------------------|
A|--------------------------------------------------------------------------|
E|--------------------------------------------------------------------------|

e|----10b12--10-------------------------------------------------------------|
B|--------------10b12-10-8-10-xx-8---8-----8------8-8-8---8-8---7-8---------|
G|----------------------------xx-7h9---7-----7----7-7-7h9-7-7---7-----------|
D|-------------------------------------------7h9--------------9-7-9-7\5-----|
A|--------------------------------------------------------------------------|
E|--------------------------------------------------------------------------|


***********************************

| /   slide up
| \   slide down
| h   hammer-on
| p   pull-off
| ~   vibrato
| +   harmonic
| x   Mute note
| b   Bend
| pb  Pre-bend
| br  Bend release
| pbr Pre-bend release
| brb Bend release bend

************************************
Tap to rate this tab
 
# A B C D E F G H I J K L M N O P Q R S T U V W X Y Z