Song name
# A B C D E F G H I J K L M N O P Q R S T U V W X Y Z

Matchbox Twenty - Unwell Acoustic tab

intro:
e|-------5-/7-\5---------------5-/7-\5--5--5--5---|
B|-5-/7--5-/7-\5--7-\5---5-/7--5-/7-\5--5---------|
G|-4-/6-----------6-\4---4-/6---------------------|
D|------------------------------------------------|
A|------------------------------------------------|
E|------------------------------------------------|

e|-------5----------------------------------------|
B|-5-/7--5--7--------7---7-----8------8-----------|
G|-4-/6-----6---4--6---6--6---------5----5/7-7/9--|
D|---------------------------5----5---------------|
A|------------------------------------------------|
E|------------------------------------------------|

e|-------5-/7-\5---------------5-/7-\5---5--7-\5--------------5-/7--5--|
B|-5-/7--5-/7-\5--7-\5---5-/7--5-/7-\5---5--7-\5--7-\5--5-/7--5-/7--5--|
G|-4-/6-----------6-\4---4-/6---------------------6-\4--4-/6-----------|
D|---------------------------------------------------------------------|
A|---------------------------------------------------------------------|
E|---------------------------------------------------------------------|

e|-------5----------------------------------------|
B|-5-/7--5--7--------7---7-----8------8-----------|
G|-4-/6-----6---4--6---6--6---------5----5/7-7/9--|
D|---------------------------5----5---------------|
A|------------------------------------------------|
E|------------------------------------------------|




  Asus2    D9    E    F#m   C#m
e|-0-------0-----0-----2-----4---|
B|-0-------3-----0-----2-----5---|
G|-2-------2-----1-----2-----6---|
D|-2-------0-----2-----4-----6---|
A|-0-------------2-----4-----4---|
E|---------------0-----1-----4---|
Tap to rate this tab
 
# A B C D E F G H I J K L M N O P Q R S T U V W X Y Z