Song name
# A B C D E F G H I J K L M N O P Q R S T U V W X Y Z

Matches - We Are One tab

Guitar 1
E|----------------|--7---5---4/14--|---7---5--17b---|----------------|
B|----------------|00--00--00------|00--00----------|----------------|
G|5555--77--5-----|----------------|----------------|----------------|
D|xxxx--xx--x-----|----------------|----------------|2222-2222-4-5---|
A|7777--99--7-x12-|-------------x3-|----------------|2222-2222-4-5---|
E|----------------|----------------|----------------|0000-0000-2-3---|


E|----------------|----------------|----------------|----------------|
B|----------------|----------------|----------------|----------------|
G|----------------|----------------|----------------|----------------|
D|5555-7777-9-10--|2222-2222-4-5---|5555-7777-9-10--|----------------|
A|5555-7777-9-10--|2222-2222-4-5---|5555-7777-9-10--|----------------|
E|3333-5555-7-9---|0000-0000-2-3---|3333-5555-7-9---|----------------|

Sorry this is all i really have. This really is my first tab. 
I know people write that shit all the time, but i tried to figure 
it out because this tab wasn't online, so heres part of it if 
your even interested. Give me some feedback or somethin. And if 
you think it sucks, please try to out do me, because i would like 
to know the real tab. Party.

-Jaybles
Tap to rate this tab
# A B C D E F G H I J K L M N O P Q R S T U V W X Y Z