Song name
# A B C D E F G H I J K L M N O P Q R S T U V W X Y Z

Matisyahu - One Day tab

"One Day" by Matisyahu
Track 3 from the CD "Light"

Tabbed by: Brenton Seifert
bseifertguitar@gmail.com
myspace.com/breathtakerx

Standard (E A D G B E)

This the arpeggiated main riff, not much but i thought i would post it anyway. :)


 (C)              (G)
|-------0---------------3-------|
|-----------1---------------3---|
|-----0-------0---------------0-|
|---2-----------------0---------|
|-3-----------------2-----------|
|-----------------3-------------|

 (Am)            (F)
|-------0---------------1h3p1-------|
|-----------1---------1-------1-----|
|-----2-------0-----2-----------2---|
|---2-------------3---------------0-|
|-0---------------------------------|
|-----------------------------------|
Tap to rate this tab
 
# A B C D E F G H I J K L M N O P Q R S T U V W X Y Z