Song name
# A B C D E F G H I J K L M N O P Q R S T U V W X Y Z

Matt Costa - Sunshine tab



HEY! It seems like there are a lot of tabs with the solo part of this song but I'M going 
to include the chords too cause I couldn't find it anywhere else.

CAPO 1

G  D  G  D  D  A  Bm  G  D  A  D
            G                                     D
e |--------|-----------------------------------|--------------------|
B |--------|-----10------10------10------10----|-/12-/10--10--------|
G |--------|-9h11----9h11----9h11----9h11---9--|--------11-11\9----|
D |------0-|-----------------------------------|-----------------12-|
A |--0-2---|-----------------------------------|--------------------|
E |--------|-----------------------------------|--------------------|
    G                               D
e |-------------------------------|-----10----------------|
B |-----10-----10-----10-----10---|-/12----12\10----------|
G |-9h11--9h11---9h11---9h11---9-|--------------11-11/12-|
D |-------------------------------|-----------------------|
A |-------------------------------|-----------------------|
E |-------------------------------|-----------------------|
   D           A  Bm             G      D        A         D
e |-----10-10--9---------------------|-------------------------------|
B |-----10-10-10--/12-10-------------|----10---10------7-----7-------|
G |-/11------------------9h11p9------|-/11---11---11\9-----9---9p6-7-|
D |-----------------------------9-12-|-------------------------------|
A |----------------------------------|-------------------------------|
E |----------------------------------|-------------------------------|

e |------10-10--|
B |------10-10--|
G |--/11----11--|
D |-------------|
A |-------------|
E |-------------|
Tap to rate this tab
# A B C D E F G H I J K L M N O P Q R S T U V W X Y Z