Song name
# A B C D E F G H I J K L M N O P Q R S T U V W X Y Z

Matt Skiba - All Fall Down tab

-------------------------------------------------------------------------------
                             ALL FALL DOWN - MATT SKIBA AND THE SEKRETS
-------------------------------------------------------------------------------
Tabbed by: e_mericana@hotmail.com
Email:

Tuning: Standard

INTRO
e|---------------------------------------------------------------------------------|
B|--7---8--10----------------------------------------------------------------------|
G|--7---7---7----------------------------------------------------------------------|
D|--0---0---0----------------------------------------------------------------------|
A|---------------------------------------------------------------------------------|
E|---------------------------------------------------------------------------------|

VERSE X 2
e|--------------------------------------------------------------------------------|
B|--------------------------------------------------------------------------------|
G|--7---5-------------------------------------------------------------------------|
D|--7---5--5----------------------------------------------------------------------|
A|--5---3--5----------------------------------------------------------------------|
E|----------3---------------------------------------------------------------------|

PRE CHORUS X 2
e|--------------------------------------------------------------------------------|
B|--------------------------------------------------------------------------------|
G|--------7-----------------------------------------------------------------------|
D|-3---5--7-----------------------------------------------------------------------|
A|-3---5--5-----------------------------------------------------------------------|
E|-1---3--------------------------------------------------------------------------|

VERSE
PRE CHORUS

CHORUS
e|---------------------------------------------------------------------------------|
B|--7------------------------------------------------------------------------------|
G|--7---9--------------------------------------------------------------------------|
D|--7---7----9---5-----------------------------------------------------------------|
A|--5---0----9---5-----------------------------------------------------------------|
E|-----------7---3-----------------------------------------------------------------|





BRIDGE
e|-----------------------------------------------------------------------------|
B|-----------------------------------------------------------------------------|
G|-----------------------------------------------------------------------------|
D|--5--7---5---9---5--7--5--7--5--7--------------------------------------------|
A|--5--7---5---9---5--7--5--7--5--7--------------------------------------------|
E|--3--5---3---7---3--5--3--5--3--5--------------------------------------------|

INTRO
CHORUS

************************************

| /   slide up
| \   slide down
| h   hammer-on
| p   pull-off
| ~   vibrato
| +   harmonic
| x   Mute note
| b   Bend
| pb  Pre-bend
| br  Bend release
| pbr Pre-bend release
| brb Bend release bend

************************************
Tap to rate this tab
# A B C D E F G H I J K L M N O P Q R S T U V W X Y Z