Guitaretab - guitar tabs
Song name
# A B C D E F G H I J K L M N O P Q R S T U V W X Y Z

Matthew Good Band - Deep Six tab

Matthew Good Band
Deep Six
Underdogs

Intro:
|-0---0-----0---0----0---0-----0--0--|
|-0---0-----0---0----0---0-----0--0--|
|-6---6-----4---4----6---6-----0--0--|
|-6---6-----4---4----7---7-----4--4--|
|-4---4-----2---2----7---7-----4--4--|
|--------------------5---5-----2--2--|

Main Riff:
|-0---0-----0---0-----0---0-----0--0----0--0--0-|
|-0---0-----0---0-----0---0-----0--0----0--0--0-|
|-6---6-----4---4-----6---6-----3--3----4--4--4-|
|-6---6-----4---4-----7---7-----4--4----4--4--4-|
|-4---4-----2---2-----7---7-----4--4----2--2--2-|
|---------------------5---5-----2--2----2--2--2-|
[ Tab from: http://www.guitaretab.com/m/matthew-good-band/69831.html ]
While the other guitar goes:
|-----------------------------------------------|
|--------------------------5--------------------|
|-------6-6b-----6-6b--------4~~~-------6b-6-6b-|
|-----------------------------------------------|
|-----------------------------------------------|
|-----------------------------------------------|

Then play an E major Chord for the chorus while
another guitar plays:
|-0-0-0-0-0-0-0-0-0-|
|-5-5-5-5-5-5-4-4-5-|
|-------------------|
|-------------------|
|-------------------|
|-------------------|

then
|--------------------------|
|--------------------------|
|-11-11-11-11-11-11-11-11--|
|-11-11-11-11-11-11-11-11--|
|--9--9--9--9--9--7--7--7--|
|--------------------------|

E [0 2 2 1 0 0]
Related for Deep Six tab
Advertisement will be closed in 10 seconds