Song name
# A B C D E F G H I J K L M N O P Q R S T U V W X Y Z

Matthew Perryman Jones - Out Of The Shadows tab

Matthew Perryman Jones - Out Of The Shadows

****************************************************************************
No capo
Standard Tuning
****************************************************************************

Verse
-6---9-------------------------|
-7---10------------------------|
-8---11------------------------|
-8---11------------------------|
-6---9-------------------------|
-6---9-------------------------|


Chorus
-2----9----4---7----9----------|
-2----9----4---7----9----------|
-3----10---4---8----10---------|
-4----11---6---9----11---------|
-4----11---6---9----11---------|
-2----9----4---7----9----------|


Bridge
-X---X---X---X-----------------|
-X---X---X---X-----------------|
-3---4---X---6-----------------|
-3---4---4---6-----------------|
-1---2---4---4-----------------|
-X---X---2---X-----------------|

I can't sleep in this room
Still so far from finding you
I can't see to dig beneath these piles of dirt that cover me

Don't let go
Don't let go
We can crawl out
Out of the shadows

Don't let go
Don't let go
We can find our way back home

Silence keeps the story straight
Fighting for the perfect state
Wave your flag
Oh
I believe hope is comfort if not relief

Don't let go
Don't let go
We can crawl out
Out of the shadows

Don't let go
Don't let go
We can find our way back

And there's a heart that still can beat with every breath that's inside me
And find the spark that's buried deep
It won't go out
So please

Don't let go
Don't let go
We can crawl out
Out of the shadows

Don't let go
Don't let go
We can find our way back home

Don't let go
We can find our way back home

Don't let go
We can find our way back

*****************************************************************************
I'm not sure for the bridge
Have fun
Tap to rate this tab
 
# A B C D E F G H I J K L M N O P Q R S T U V W X Y Z